» » »

Need All My Friends Tabs (ver.3)

Artists:  A B C D E F G H I J K L M N O P Q R S T U V W X Y Z # 

Need All My Friends Tabs (ver.3)

Lynyrd Skynyrd
Rating:
0/5 (0 votes)

Hard to play? Try these video lessons and learn fast.
                Lynyrd skynyrd

Need All My Friend

It’s quite simple so you should het the hang of it pretty quick.


Cadd9      D	 Dsus	  G 		

|---3-------2------3------3---|
|---3-------3------3------0---|
|---0-------2------2------0---|
|---2-------0------0------0---|
|---3-------0------0------2---|
|---0-------0------0------3---|


Intro:

|---3--3--------3---------3----2--2--------3p2--0---------------|
|---3-----3--------3-----------3-----3--------------3-----------|
|---0--------0--------0--------2--------2-----------------------|	x4		
|---2--------------------------0--------------------------------|
|---3--------------------------0--------------------------------|
|---0--------------------------0--------------------------------|


Verse:

Woman…				I have to leave you…
|---3--3--------3---------3----2--2--------3p2--0---------------|
|---3-----3--------3-----------3-----3--------------3-----------|
|---0--------0--------0--------2--------2-----------------------|   Repeat this 		
|---2--------------------------0--------------------------------|     riff through 	x4
|---3--------------------------0--------------------------------|     the whole verse
|---0--------------------------0--------------------------------|     until the refrain



Been so long…        			
|---3--3--------3---------3----2--2--------3p2--0---------------|
|---3-----3--------3-----------3-----3--------------3-----------|
|---0--------0--------0--------2--------2-----------------------|	x4		
|---2--------------------------0--------------------------------|
|---3--------------------------0--------------------------------|
|---0--------------------------0--------------------------------|



Refrain:
D  C   D        C  G	C     D	       C   G  C         D
….Talk to…………..Now yes I do………Need all my friends

C  G  C       D


Verse 2:

Gonna search around…
|---3--3--------3---------3----2--2--------3p2--0----------------|
|---3-----3--------3-----------3-----3--------------3------------|
|---0--------0--------0--------2--------2------------------------|	x4		
|---2---------------------------0--------------------------------|
|---3---------------------------0--------------------------------|
|---0---------------------------0--------------------------------|



Chorus:

C                   D	     C G 					    
Now I got to sing my song 				

C	D			C    G       C D
I got to play my music, do the things I love	



1st solo:


        Cadd9			D		Cadd9                                 D
|-----------------------------------------------------------------|
|---5/12----10h12p10--8h10p8--7-------5/12----10h12p10--8h10p8--7-|
|-----------------------------------------------------------------|
|-----------------------------------------------------------------|
|-----------------------------------------------------------------|
|-----------------------------------------------------------------|

	                      


		Cadd9		D

|--/15p14-----------------------------------------------------------|
|-----------15-----15------13p12h13p12h13p12---13p12h13p12h13p12h13-|
|---------------14--------------------------------------------------|
|-------------------------------------------------------------------|
|---------------------------------------------------------------------|
|---------------------------------------------------------------------|




	Cadd9			D			Cadd9

|--------------------------------------------------------------------|
|---15b17r15--15--13-------------------------------------------------|
|------------------------14--12b14r12--11--12b14r12p11---------------|
|-------------------------------------------------------------12-----|
|--------------------------------------------------------------------|
|--------------------------------------------------------------------|




			D			     Cadd9

|----------------------------------------------------------------------|
|-----------15--------13b15r13--15-----13------13b15r13---------13-----|
|---12/14-------h14--------------------------14-------------14------14-|
|----------------------------------------------------------------------|
|----------------------------------------------------------------------|
|----------------------------------------------------------------------|


			      D				Cadd9
				

|--------------------------13b15r13--13---------------------------|
|--13b15r13-----13-------------------------15-------13b15r13--15--|
|-------------14------14-------------------------14---------------|
|-----------------------------------------------------------------|
|-----------------------------------------------------------------|
|-----------------------------------------------------------------|



		D		Cadd9				D

|-------------------------------------------------------------------------------|
|-13----------------------------------------------------------------------------|
|------h1412------11-------------------------11---------------------------------|
|------------------12--12b14-------12--------12b14r12-----12------12b14r12------|
|---------------------------------------16--------------------16-------------16-|
|-------------------------------------------------------------------------------|



     Cadd9		D					Cadd9

|-----------------------------------------------------------------------------|
|-----------------------------------------------------------------------------|
|-------11--------------------12p11h12p11h12p11h12p11----------------11-------|
|--12---12b14r12----------12-------------------------------------12--12b14r12-|
|--------------------16-------------------------------------------------------|
|-----------------------------------------------------------------------------|


	D

|-------------------------------|
|-------------------------------|
|-------------------------------|
|-------12----12b14--12---------|
|--16-----------------------16--|
|-------------------------------|


Repeat chords like in the refrain,and I’m sorry I haven’t got the 2nd solo yet.  

Have fun
            
Hard to play? Try these video lessons and learn fast. | Correct




comments powered by Disqus
↑ Back to top | Tablatures and chords are parodies/interpretations of the original songs. You may use it for private study, scholarship, research or language learning purposes only