» » »

Lynyrd Skynyrd, Gifted Hands Tabs (ver.1)

Artists:  A B C D E F G H I J K L M N O P Q R S T U V W X Y Z # 

Gifted Hands Tabs (ver.1)

Lynyrd Skynyrd Tabs
 Rating:
4/5 (4 votes)
Gifted Hands lessons Tabs too difficult? Try these video lessons and learn fast
1
                This is my first ever tab. I decided to tab this song because it one of my favourites
between this, still unbroken, floyd or comin' back for more) on the God & Guns album. That
Because it is the song most like old Skynyrd. However, I think new skynyrd is also 
Please rate but don't rate the chords because they mightn't be right but if they are do
them.)

Band-Lynyrd Skynyrd
Song-Gifted Hands
Album-God & Guns
Tuning-Standard

Intro
Guitar 1 Clean (0:00 - 0:11)
 E----------------------------------|
 B----------------------------------|
 G----9-7---9-7---9-7-5~-5p4-5p4----|
 D-------9~----7~---------------5-5-|
 A--------------------------------5-|
 E----------------------------------|

Guitar 2 Distortion (0:12-0:14)
 E----------|
 B----------|
 G----------|
 D--------3-|
 A---3-3h5--|
 E----------|

Guitar 1 Very slight Distortion- There are chords in the back ground Not too sure which.
think the first is a G but can't tell what the rest are.
0:15 - 0:25
 E----------------------------------|
 B----------------------------------|
 G----9-7---9-7---9-7-5~-5p4-5p4----|
 D-------9~----7~---------------5-5-|
 A--------------------------------5-|
 E----------------------------------|

Guitar 1 chords

verse 1
[G + 3rd fret B string]
I remember the day that he came in
[D]
I can't belive How long it's been
[C]
Like a poet he began to play
[A minor]
----------------------------------
Repeat Sequence through out the verses

Chord shapes

 [G+3B][D] [C] [Am]
 E--3---2---x---x---|
 B--3---3---1---1---|
 G--0---2---0---2---|
 D--0---0---2---2---|
 A--2---x---3---0---|
 E--3---x---x---x---|

chorus
[G]
'Cause I know he's here
[D]
He's everywhere
[C]
Take a look around oh and you'll see
[A]
That cross we bear
[Am]
Lord we thank you for these gifted hands

Solo
 E-------------------------------------|
 B-------------------------------------|
 G--5b>10-15b>17<15-15-13 13b>14<13-10-|
 D-------------------------------------|
 A-------------------------------------|
 E-------------------------------------|

Verse 2
Chorus
Afetr chours Guitar 2 2:32
 E----------------------------------|
 B----------------------------------|
 G---7-6-2--------------------------|
 D---5-4-0--------------------------|
 A----------------------------------|
 E----------------------------------|

solo 2 2:46 part 1
 E-------------------------------------|
 B--5b>10-15b>17<15-15-13 13b>14<13-10-|
 G-------------------------------------|
 D-------------------------------------|
 A-------------------------------------|
 E-------------------------------------|
 part 2
 E-------------------------------------|
 B--5b>10-15b>17<15-15-13 15b>17<15-13-|
 G-------------------------------------|
 D-------------------------------------|
 A-------------------------------------|
 E-------------------------------------|
 part 3 (becomes backing)
 E-------------------------------------|
 B--17b-17b-15b-13b--17b-17b-15b-13b---| repeat part 3 till end of solo
 G-------------------------------------|
 D-------------------------------------|
 A-------------------------------------|
 E-------------------------------------|

Over solo part 3
 Part 4
 E------------------|
 B----15-19-18-17---|
 G------------------|
 D------------------|
 A------------------|
 E------------------| repeat till end
 First Part of the faster solo
 E--------------------------------------|
 B------------------15------------------|
 G--15-14-12----------15-14-12--------15|
 D----------15-14-12----------15-14-12--|
 A--------------------------------------|
 E--------------------------------------|
Guitar 1 Clean
 E----------------------------------|
 B----------------------------------|
 G----9-7---9-7---9-7-5~-5p4-5p4----|
 D-------9~----7~---------------5-5-|
 A--------------------------------5-|
 E----------------------------------|

This is only my first tab remember so it probably isn't excelent.
            
Submit corrections

comments powered by Disqus
↑ Back to top | Lynyrd Skynyrd Tabs for Gifted Hands. Lyrics for acoustic guitar and electric guitar. 1 Tablatures and chords are parodies/interpretations of the original songs. You may use it for private study, scholarship, research or language learning purposes only