>
 >
Don't Ask Me No Questions 1

Don't Ask Me No Questions 1 Guitar Tabs

Lynyrd Skynyrd - Don't Ask Me No Questions 1 chords, tabs, tablatures, lyrics

Guitar lessons | Add/correct | Request | Top 50 tabs Artists:  A B C D E F G H I J K L M N O P Q R S T U V W X Y Z 0-9

Don't Ask Me No Questions 1 Guitar Tabs – Lynyrd Skynyrd

CD, Sheet music, Poster

Do you like Don't Ask Me No Questions 1? Share with your friends now
Bass TabsChordsChords v2TabsTabs v2Tabs v3
-------------------------------------------------------------------------------
                             DON'T ASK ME NO QUESTIONS - Lynyrd Skynyrd
-------------------------------------------------------------------------------

Intro/Chorus
e|-----------------------------------------------------------|
b|-----------------------------------------------------------|
g|-------------------------------7-----------5---5--5\3------|
d|---------------5---------------7-----------5---5--5\3--5---|
a|---------------5---0---4---5---5---0---2---3---3--3\1--5---|
e|---0---2---3---3---------------------------------------3---|x2

e|--8------8--8-9-10-----------------------------------------|
B|----------------------11-10-8-8----------------------------|
G|----------------------------------9----9-8-7-5--5----------|
D|-----------------------------------------------------------|
A|-----------------------------------------------------------|
E|-----------------------------------------------------------|

Verses
e|---------------------------------------------------------------------------|
B|---------------------------------------------------------------------------|
G|-5--5--5----------------------------------------5-5---5--5-5---------------|
D|-5--5--5-9-7--7--7--7--5-5---5--5---5-5---5--5--5-5---5--5-5--9-7--7--7--7-|
A|-3--3--3-5-5--5--5--5--5-5---5--5---5-5---5--5--3-3---3--3-3--5-5--5--5--5-|
E|-----------------------3-3---3--3---3-3---3--3-----------------------------|

e|---------------------------------------------------------------------------|
B|---------------------------------------------------------------------------|
G|---------------------------5--5---5--5-5-----------------9--9---9--9\---5--|
D|-5-5---5--5---5-5---5---5--5--5---5--5-5--9--7--7--7--7--9--9---9--9\---5--|
A|-5-5---5--5---5-5---5---5--3--3---3--3-3--5--5--5--5--5--7--7---7--7\---3--|
E|-3-3---3--3---3-3---3---3--------------------------------------------------|
                  
e|---------------------------------------------------------------------------|
B|---------------------------------------------------------------------------|
G|-5-5-------------------------------7-7----------5------0-----------------5-|
D|-5-5------5---5--5--5--------------7-7----------5--1/2---0------5--5-5-5-5-|
A|-3-3--5s7---7-5--5--5------5---5-5-5-5-0-2-3-3-3----------------5--5-5-5-3-|
E|--------------3--3--3--5S7---7-----------------------------3-3--3--3-3-3---|

e|---------------------------------------------------------------------|
B|---------------------------------------------------------------------|
G|--5---5--5---------------------------------------------------------5-|
D|--5---5--5---9--7--7--7--7-7-12--12---12--12---/12-12--12-12---12--5-|
A|--3---3--3---5--5--5--5--5-5-10--10---10--10---/10-10--10-10---10--3-|
E|---------------------------------------------------------------------|

 Guitar Solo
e|-8-8-7-8-8--8---8-6-8-8\10-6------6-------------------3-3--3---------------|
B|-----------------------------8--6---8--8---8-6---------------6-------------|
G|-----------------------------------------------\5-3------------\5-3-5-5--5-|
D|----------------------------------------------------5----------------------|
A|---------------------------------------------------------------------------|
E|---------------------------------------------------------------------------|

e|--------------3---------------6--------------------------------------------|
B|------------3---3--3------------6-8--8--8b-8b-8b-8b-8b-8b-8--6-8--8--8-6-8-|
G|-5-3-5b--5------3--3--------7----------------------------------------------|
D|----------------------5-3/-------------------------------------------------|
A|---------------------------------------------------------------------------|
E|---------------------------------------------------------------------------|

e|-6b--------------------------------------------15--------------------------|
B|-------11-12-13--13--13--11--------------11/-------18----------------------|
G|----12-----------------------12-12-10-12--------------17b-17--15-17-17-----|
D|---------------------------------------------------------------------------|
A|---------------------------------------------------------------------------|
E|---------------------------------------------------------------------------|

e|--------18b---18--18------------------------15-15--------------------------|
B|---------------------15--15----15--------------------15--------------------|
G|--17-15---------------------17----15--16-17-------17----15-16-17-----------|
D|---------------------------------------------------------------------------|
A|---------------------------------------------------------------------------|
E|---------------------------------------------------------------------------|

e|15-15---18-18b-18b-18--18b-18--18b-18--15-|
B|------------------------------------------|
G|------------------------------------------|
D|------------------------------------------|
A|------------------------------------------|
E|------------------------------------------|

Outro
e|-15--------15--15--------15---15--------------------------12-15---15--|
B|----13-/15--------13-/15---------15---11\10\9\8--8--12-15-------------|
G|----------------------------------------------------------------------|
D|----------------------------------------------------------------------|
A|----------------------------------------------------------------------|
E|----------------------------------------------------------------------|

-------------------------------------------------------------------------------





Comments


Popular Lynyrd Skynyrd tabs & chords
We Aint Much Different Bass Tabs
Whats Your Name 2 Bass Tabs
Cry For The Bad Man Tabs
I Know Little About Love Tabs
Last Rebel 2 Tabs
Sweet Home Alabama Accurate Tabs
The Needle And The Spoon Intro 1 Tabs
Tuesdays Gone Yet Again 1 Tabs
Whats Your Name Complete Tabs
Edge Of Forever Ukulele


Song lyrics



↑ Back to top | Tablatures and chords are parodies/interpretations of the original songs. You may use it for private study, scholarship, research or language learning purposes only
© 2014 AZChords.com Contact us | Privacy policy | DMCA | Add/correct tabs | Request tabs | Top 50 tabs