» » »

Comin Back For More Tabs (ver.2)

Artists:  A B C D E F G H I J K L M N O P Q R S T U V W X Y Z # 

Comin Back For More Tabs (ver.2)

Lynyrd Skynyrd
Rating:
0/5 (0 votes)

Hard to play? Try these video lessons and learn fast.
                


[INTRO]

       [-pm------]           [-pm------]           [-pm----------|
E|-----------------|  E|-----------------|  E|-------------------|
B|-----------------|  B|-----------------|  B|-------------------|
G|-----------------|  G|-----------------|  G|-------------------|
D|-----------------|  D|-----------------|  D|-------------------|
A|---7b^-6-5-6-5-3-|  A|---7b^-6-5-6-5-3-|  A|---7b^-6-5-6-5-3---|
E|-----------------|  E|-----------------|  E|-------------------|

Guitar 1

E|------------|
B|------------|
G|------------|
D|--7-6-7-8-9-|
A|--5-4-5-6-7-|
E|------------|


Guitar 1
      [-pm------]             [-pm------]           [-pm---------|
E|-----------------|  E|-----------------|  E|-------------------|
B|-----------------|  B|-----------------|  B|-------------------|
G|-----------------|  G|-----------------|  G|-------------------|
D|-----------------|  D|-----------------|  D|-------------------|
A|---7b^-6-5-6-5-3-|  A|-7b7b^-6-5-6-5-3-|  A|-7b7b^-6-5-6-5-3---|
E|-----------------|  E|-----------------|  E|-------------------|

Guitar 2

E|-----------------|  E|-----------------|  E|-----------------|
B|-----------------|  B|-----------------|  B|-----------------|
G|-----------------|  G|-----------------|  G|-----------------|
D|-----------------|  D|{12b12b----------|  D|{12b12b----------|
A|-----------------|  A|{12b12b----------|  A|{12b12b----------|
E|-----------------|  E|-----------------|  E|-----------------|

Guitar 1

E|-----------------|
B|-----------------|
G|-----------------|
D|--7-6-7-8-9------|
A|--5-4-5-6-7------|
E|-----------------|

[VERSE 1]


Guitar 1

E|-----------------|
B|-----------------|
G|-----------------|
D|---7-8-----------|
A|---5-6-----------|
E|-----------------|


Guitar 2

E|-------|
B|-------|
G|-------|
D|--16b^-|
A|-------|
E|-------|


Guitar 1

E|---------------------------------------------------|
B|---------------------------------------------------|
G|---------------------------------------------------|
D|-----------------7-8---------------------------7-8-|
A|-----------------5-6---------------------------5-6-|
E|---------------------------------------------------|
  I ain't the kind     to stick around without it

E|----------------------------------------------------|
B|----------------------------------------------------|
G|----------------------------------------------------|
D|-----------------7-8----------------------------7-8-|
A|-----------------5-6----------------------------5-6-|
E|----------------------------------------------------|
   It'd be a crime     'cause man I'm all about it

E|----------------------------------------|
B|----------------------------------------|
G|----------------------------------------|
D|-----------------7-8----------------7-8-|
A|-----------------5-6----------------5-6-|
E|----------------------------------------|
  It's in my blood     It's in my breathin


E|-----------------------------------------|
B|-----------------------------------------|
G|-----------------------------------------|
D|-------------------7-6-7-8-9-------------|
A|-------------------5-4-5-6-7-------------|
E|-----------------------------------------|
  It's like a drug - gotta have the feeling

E|------------------------------------------|
B|------------------------------------------|
G|------------------------------------------|
D|---7-------9------------------------------|
A|---5-------7------------------------------|
E|------------------------------------------|
  It's been awhile since I've seen your face

      [-pm------]             [-pm---------|
E|-----------------|  E|-------------------|
B|-----------------|  B|-------------------|
G|-----------------|  G|-------------------|
D|-----------------|  D|-------------------|
A|---7b^-6-5-6-5-3-|  A|-7b7b^-6-5-6-5-3---|
E|-----------------|  E|-------------------|

E|------------------------------------------|
B|------------------------------------------|
G|------------------------------------------|
D|---7------------------------------77-77---|
A|---5------------------------------55-55---|
E|------------------------------------------|
         What a shame, what a waste

Chorus
E|-----------------------------------------------------------------|
B|-----------------------------------------------------------------|
G|-----------------------------------------------------------------|
D|--7-------------------------------5------------------------------|
A|--5-------------------------------3------------------------------|
E|-----------------------------------------------------------------|
    I've been up, I've been down    I've been kicked to the ground

E|-----------------------------------------------------------------|
B|-----------------------------------------------------------------|
G|-----------------------------------------------------------------|
D|--7-------------------------------5------------------------------|
A|--5-------------------------------3------------------------------|
E|-----------------------------------------------------------------|
 | But I can't get my mind off of you                              |
 |(guitar 2)                                                       |
E|-----------------------------------------------------------------|
B|-----------------------------------------------------------------|
G|----------------------------------15b(17)-17-15b(17)(15)-13------|
D|-----------------------------------------------------------------|
A|-----------------------------------------------------------------|
E|-----------------------------------------------------------------|


E|------------------------------------------|
B|------------------------------------------|
G|------------------------------------------|
D|--7-------------------------------5-------|
A|--5-------------------------------3-------|
E|------------------------------------------|
 |So I keep on movin' on to a place I belong|


E|------------------------------------------|
B|------------------------------------------|
G|------------------------------------------|
D|--7---------------------------------------|
A|--5---------------------------------------|
E|------------------------------------------|
    Hopin' you wanted me to

E|------------------------------------------|
B|------------------------------------------|
G|------------------------------------------|
D|--7777777---------------------------------|
A|--5555555---------------------------------|
E|------------------------------------------|
  I'm better than I was before

E|------------------------------------------|
B|------------------------------------------|
G|------------------------------------------|
D|--77-7------------------------------------|
A|--55-5------------------------------------|
E|------------------------------------------|
   I'm knocking at your door - I'm coming back for more

Guitar 1
      [-pm------]             [-pm------]           [-pm---------|
E|-----------------|  E|-----------------|  E|-------------------|
B|-----------------|  B|-----------------|  B|-------------------|
G|-----------------|  G|-----------------|  G|-------------------|
D|-----------------|  D|-----------------|  D|-------------------|
A|---7b^-6-5-6-5-3-|  A|-7b7b^-6-5-6-5-3-|  A|-7b7b^-6-5-6-5-3---|
E|-----------------|  E|-----------------|  E|-------------------|

Then verse 2 same as verse 1 for guitar but with these lyrics:

Some say it's love
Some say it's hate
I'm here to tell you it's never too late
If you don't use it
Man you're gonna lose it
Your sweet little nothings are what I call music

It's been awhile since I've seen your face
What a shame, what a waste


then it is chorus, solo, chorus.

I haven't done many tabs (This is only my thrid, I've done this, gifted hands and floyd 
You couldn't tell that I like the God & Guns album could you?) Back on topic, I hope 
is mostly correct, please  leave comments and rate it.
            
Hard to play? Try these video lessons and learn fast. | Correct




comments powered by Disqus
↑ Back to top | Tablatures and chords are parodies/interpretations of the original songs. You may use it for private study, scholarship, research or language learning purposes only