» » »

If The World Was To End Tabs (ver.2)

Artists:  A B C D E F G H I J K L M N O P Q R S T U V W X Y Z # 

If The World Was To End Tabs (ver.2)

Lower Than Atlantis
Rating:
5/5 (2 votes)

Hard to play? Try these video lessons and learn fast.
                tuning drop C#\Db  (  Db Ab Db Gb Bb eb )

intro \ chorus
first chord 
|-------8----------------------------------------------------------------------------|
|-------x----------------------------------------------------------------------------|
|-------0----------------------------------------------------------------------------|
|-------7----------------------------------------------------------------------------|
|-------10---------------------------------------------------------------------------|
|-------0----------------------------------------------------------------------------|

intro\main riff
|------------------------------------------------------------------------------------|
|------------------------------------------------------------------------------------|
|----------1-------------------------------------------------------------------------|
|------------0-----------------------------------------------------------------------|
|------------------------------------------------------------------------------------|
|---2p-0-----------------------------------------------------------------------------|
repeat main riff


verse
|-----------------------------------------------------------------------------------|
|-----------------------------------------------------------------------------------|
|--1-1-1-1-1-1--1-3-3-3-3-3--3-2-2-2-2-2-2------------------------------------------|
|--2-2-2-2-2-2--2-4-4-4-4-4--4-3-3-3-3-3-3------------------------------------------|
|--2-2-2-2-2-2--2-4-4-4-4-4--4-3-3-3-3-3-3------------------------------------------|
|--2-2-2-2-2-2--2-4-4-4-4-4--4-3-3-3-3-3-3------------------------------------------|
x2


PM-------------------------------------------]
|-----------------------------------------------------------------------------------|
|-----------------------------------------------------------------------------------|
|--1-1-1-1-1-1--1-3-3-3-3-3--3-2-2-2-2-2-2------------------------------------------|
|--2-2-2-2-2-2--2-4-4-4-4-4--4-3-3-3-3-3-3------------------------------------------|
|--2-2-2-2-2-2--2-4-4-4-4-4--4-3-3-3-3-3-3------------------------------------------|
|--2-2-2-2-2-2--2-4-4-4-4-4--4-3-3-3-3-3-3------------------------------------------|
repeat verse but palm mute
x2



chorus

|------------------------------------||-------------------------------------|
|------------------------------------||-------------------------------------|
|--0-0-0---0--0-0--------------------||--0-0-0---0--0-0---------------------|
|--5-5-5---7--7-7------8-8-8-8-9-9-9-||--5-5-5---7--7-7-------2-2-2-2-2-2-2-|
|--3-3-3---5--5-5------9-9-9-9-9-9-9-||--3-3-3---5--5-5-------2-2-2-2-2-2-2-|
|--0-0-0---0--0-0------8-8-8-8-9-9-9-||--0-0-0---0--0-0-------2-2-2-2-2-2-2-|
x2


verse
|--------------------------------------------|
|--------------------------------------------|
|--1-1-1-1-1-1--1-3-3-3-3-3--3-2-2-2-2-2-2---|
|--2-2-2-2-2-2--2-4-4-4-4-4--4-3-3-3-3-3-3-=-|
|--2-2-2-2-2-2--2-4-4-4-4-4--4-3-3-3-3-3-3---|
|--2-2-2-2-2-2--2-4-4-4-4-4--4-3-3-3-3-3-3---|
x4





chorus

|------------------------------------||-------------------------------------|
|------------------------------------||-------------------------------------|
|--0-0-0---0--0-0--------------------||--0-0-0---0--0-0----------------------|
|--5-5-5---7--7-7------8-8-8-8-9-9-9-||--5-5-5---7--7-7------2-2-2-2-2-2-2--|
|--3-3-3---5--5-5------9-9-9-9-9-9-9-||--3-3-3---5--5-5------2-2-2-2-2-2-2--|
|--0-0-0---0--0-0------8-8-8-8-9-9-9-||--0-0-0---0--0-0------2-2-2-2-2-2-2--|
x2


bridge \ bananananas


|---------|
|---------|
|--9-^----| Slowly increase bend
|--x------|
|--x------|
|--9------|


 pm--------------------]
|------------------------------------------------------------|
|------------------------------------------------------------|
|------------------------------------------------------------|
|-2-2-2-2-5-5-5-5-7-7-7-7-10-10-9-9-9-9-9-9-9--3-3-3-2-2-2---|
|-2-2-2-2-5-5-5-5-7-7-7-7-10-10-9-9-9-9-9-9-9--3-3-3-2-2-2---|
|-2-2-2-2-5-5-5-5-7-7-7-7-10-10-9-9-9-9-9-9-9--3-3-3-2-2-2---|


|-----------------------------------------------------------------|
|-----------------------------------------------------------------|
|-----------------------------------------------------------------|
|-2-2-2-2------5-5-5-7-7-7-7---10-10-9-9-9-9-9-9-9--3-3-3-2-2-2---|
|-2-2-2-2------5-5-5-7-7-7-7---10-10-9-9-9-9-9-9-9--3-3-3-2-2-2---|
|-2-2-2-2------5-5-5-7-7-7-7---10-10-9-9-9-9-9-9-9--3-3-3-2-2-2---|



intro\main riff
|---------------------------|
|---------------------------|
|----------1----------------|
|------------0--------------|
|---------------------------|
|---2p-0--------------------|



chorus
|------------------------------------||-------------------------------------|
|------------------------------------||-------------------------------------|
|--0-0-0---0--0-0--------------------||--0-0-0---0--0-0---------------------|
|--5-5-5---7--7-7------8-8-8-8-9-9-9-||--5-5-5---7--7-7-------2-2-2-2-2-2-2-|
|--3-3-3---5--5-5------9-9-9-9-9-9-9-||--3-3-3---5--5-5-------2-2-2-2-2-2-2-|
|--0-0-0---0--0-0------8-8-8-8-9-9-9-||--0-0-0---0--0-0-------2-2-2-2-2-2-2-|
x2
            
Hard to play? Try these video lessons and learn fast. | Correct




comments powered by Disqus
↑ Back to top | Tablatures and chords are parodies/interpretations of the original songs. You may use it for private study, scholarship, research or language learning purposes only