» » »

Lower Than Atlantis, If The World Was To End Tabs (ver.1)

Artists:  A B C D E F G H I J K L M N O P Q R S T U V W X Y Z # 

If The World Was To End Tabs (ver.1)

Lower Than Atlantis Tabs
 Rating:
3.4/5 (5 votes)
If The World Was To End lessons Tabs too difficult? Try these video lessons and learn fast
                -------------------------------------------------------------------------------
-------------------------------------------------------------------------------

Tuning: Db Ab Db Gb Bb Eb 

Intro (After pads etc)

                                Main Riff

Eb-------------|-------------|---------------|-------------|-------------|---------------|
Bb-------------|-------------|---------------|-------------|-------------|---------------|
Gb-------------|-------------|o--------1-----|-------1-----|-------1-----|--------------o|
Db-2-----------|2------------|-----------2---|---------2---|---------2---|7-77--10--3----|
Ab-2-----------|2------------|o--------------|-------------|-------------|7-77--10--3---o|
Db-2-----------|2------------|--2--0-2-----0-|2--0-2-----0-|2--0-2-----0-|7-77--10--3----|
   Strum for two bars
Repeat the indicated section four times, drums will come in on the third time.

Verse:

|-------------|-------------|-------------|-------------|
|-------------|-------------|-------------|-------------|
|-------------|-------------|-------------|-------------|Repeat three more times, on the third and
|2------------|2------------|4------------|3------------|fourth times through palm mute the chords.
|2------------|2------------|4------------|3------------|
|2------------|2------------|4------------|3------------|
Strum each chord for the whole bar.

Chorus:

|-------------|-------------|-------------|-------------|
|-------------|-------------|-------------|-------------|
|5------------|7------------|-------------|-------------|
|5------------|7------------|9------------|7------------|
|3------------|5------------|7------------|7------------|
|-------------|0------------|6------------|7------------|

|-------------|-------------|-------------|-------------|  
|-------------|-------------|-------------|-------------|
|5------------|7------------|-------1-----|-------1-----|  Repeat twice
|5------------|7------------|---------2---|---------2---|
|3------------|5------------|-------------|-------------|
|-------------|-------------|2--0-2-----0-|2--0-2-----0-|
Again, chords for the whole bar

Verse:

Same as verse 1, but on the third time though, play as below


|-------------|-------------|-------------|-------------|
|-------------|-------------|-------------|-------------|
|-------------|-------------|-------------|-------------|
|2------------|2------------|5------------|7------------|
|2------------|2------------|5------------|7------------|
|2------------|2------------|5------------|7------------|

Then for the fourth time go back to the normal verse sequence.


Chorus again


Middle Section

|-------------|-------------|-------------|-------------|
|5(whole bar)-|5(whole bar)-|5(whole bar)-|5b5b5b(6)(6)-|
|-------------|-------------|-------------|-------------|
|-------------|-------------|-------------|-------------|
|-------------|-------------|-------------|-------------|
|-------------|-------------|-------------|-------------|

|-------------|-------------|-------------|-------------|-------------|-------------|
|-------------|-------------|-------------|-------------|-------------|-------------|
|-------------|-------------|-------------|-------------|-------------|-------------| Repeat 
|-------------|-------------|-------------|-------------|-------------|-------------| twice
|-------------|-------------|0(whole bar)-|3(whole bar)-|2(whole bar)-|-------------|
|2(whole bar)-|5(whole bar)-|-------------|-------------|-------------|5(whole bar)-|


|-------------|-------------|-------------|-------------|-------------|-------------|
|-------------|-------------|-------------|-------------|-------------|-------------|
|-------------|-------------|-------------|x-5--x-5-----|4444---------|-------------| Repeat
|2222---------|x-5--x-5-----|7777---------|x-5--x-5-----|4444---------|x-5--x-5-----| four
|2222---------|x-5--x-5-----|7777---------|x-3--x-3-----|2222---------|x-5--x-5-----| times
|2222---------|x-5--x-5-----|7777---------|-------------|-------------|x-5--x-5-----|


Main Riff

Chorus

End:


|-------------|-------------|-------------|
|-------------|-------------|-------------|
|-------1-----|-------1-----|-------------|
|---------2---|---------2---|2------------|
|-------------|-------------|2------------|
|2--0-2-----0-|2--0-2-----0-|2------------|
            
Submit corrections

comments powered by Disqus
↑ Back to top | Lower Than Atlantis Tabs for If The World Was To End. Lyrics for acoustic guitar and electric guitar. Tablatures and chords are parodies/interpretations of the original songs. You may use it for private study, scholarship, research or language learning purposes only