» » »

Love Equals Death, Bombs Over Brooklyn Tabs (ver.2)

Artists:  A B C D E F G H I J K L M N O P Q R S T U V W X Y Z # 

Bombs Over Brooklyn Tabs (ver.2)

Love Equals Death Tabs
 Rating:
4/5 (4 votes)
Bombs Over Brooklyn lessons Tabs too difficult? Try these video lessons and learn fast
1
                Bombs Over Brooklyn by Love = Death

Intro/Verse 1:
|----------------------|
|----------------------|
|--7-9-7-9--9-9-9-9-9--|
|--7-9-7-9--9-9-9-9-9--|
|--7-7-7-7--7-7-7-7-7--|
|----------------------|
(repeat)

Pre-Chorus:
|------------------------------------------------------------------------|
|------------------------------------------------------------------------|
|------------------------------------------------------------------------|
|--7-7-7-7-7-7-7-7-7--7-7-7-7-7-7-7-7--7-7-7-7-7-7-7-7--9-9-9-9-9-9-9-9--|
|--7-7-7-7-7-7-7-7-7--7-7-7-7-7-7-7-7--7-7-7-7-7-7-7-7--9-9-9-9-9-9-9-9--|
|--5-5-5-5-5-5-5-5-5--4-4-4-4-4-4-4-4--5-5-5-5-5-5-5-5--7-7-7-7-7-7-7-7--|

Verse 2:
|------------------------------------------|
|------------------------------------------|
|--7-9-7-9--9-9-9-9-9--7-9-7-9--9-9-9-9-9--|
|--7-9-7-9--9-9-9-9-9--7-9-7-9--9-9-9-9-9--|
|--7-7-7-7--7-7-7-7-7--7-7-7-7--7-7-7-7-7--|
|------------------------------------------|
|
|---------------------------------------------|
|---------------------------------------------|
|--7-9-7-9--9-9-9-9-9-9-9-9--6-6-6-6-6-6-6-6--|
|--7-9-7-9--9-9-9-9-9-9-9-9--6-6-6-6-6-6-6-6--|
|--7-7-7-7--6-6-6-6-6-6-6-6--4-4-4-4-4-4-4-4--|
|---------------------------------------------|

Chorus:
|--------------------------------------|
|--------------------------------------|
|-----------9-9-9-9--7-7-7-7-----------|
|--2-2-2-2--9-9-9-9--7-7-7-7--7-7-7-7--|
|--2-2-2-2--7-7-7-7--5-5-5-5--7-7-7-7--|
|--0-0-0-0--------------------5-5-5-5--|
|
|--------------------------------------|
|--------------------------------------|
|-----------9-9-9-9--7-7-7-7-----------|
|--2-2-2-2--9-9-9-9--7-7-7-7--7-7-7-7--|
|--2-2-2-2--7-7-7-7--5-5-5-5--7-7-7-7--|
|--0-0-0-0--------------------5-5-5-5--|
|
|--------------------------------------|
|--------------------------------------|
|--*--*--*--9-9-9-9--7-7-7-7-----------|
|--2--2--2--9-9-9-9--7-7-7-7--7-7-7-7--|
|--2--2--2--7-7-7-7--5-5-5-5--7-7-7-7--|
|--0--0--0--------------------5-5-5-5--|
|
|------------------------------|----------------|
|------------------------------|----------------|
|------------------------------|----------------|
|--9-9-9-9-9-9-9-9-9-9-9-9-9---|--5-5-5-5h7p5-5-|
|--9-9-9-9-9-9-9-9-9-9-9-9-9---|--5-5-5-5-5-5-5-|
|--7-7-7-7-7-7-7-7-7-7-7-7-7---|----------------|

Breakdown:
|---------------------------------------------------------------------------|
|---------------------------------------------------------------------------|
|-----************-------************-------************-------************-|
|--2--222222222222--5-2--222222222222--5-2--222222222222--5-2--222222222222-|
|--2--222222222222--5-2--222222222222--5-2--222222222222--5-2--222222222222-|
|--0--000000000000--3-0--000000000000--3-0--000000000000--3-0--000000000000-|
|
|--------------------------------------------------|
|--------------------------------------------------|
|--9-9-9-9--12-12-12-12--14-14-14-14--15-15-15-15--|
|--x-x-x-x--x--x--x--x---x--x--x--x---x--x--x--x---|
|--7-7-7-7--10-10-10-10--12-12-12-12--13-13-13-13--|
|--------------------------------------------------|

Sorry, couldn't work out the solo.

thats basically the gist of it. Just finish on:

|---------------|
|---------------|
|--*------------|
|--2-2----------|
|--2-2----------|
|--0-0----------| and just let that last chord fade.

Intro/Verse 1                x12
Pre-Chorus                   x1
Verse 2                      x1
Pre-Chorus                   x1
Chorus                       x1
Intro/Verse 1                x4
Verse 2                      x1
Pre-Chorus                   x1
Chorus                       x1
Breakdown                    x1
Verse (Underneath solo)      x1
Pre-Chorus (Underneath solo) x1
Chorus (Just bass)           x1
Chorus                       x1

That's it. I couldn't find a tab for this brilliant song anywhere so I submitted my own. 
think it's mostly accurate, but I'm not too sure about the second part of the 
It's based around the same notes though.
This is one of my first tabs, so be gentle.
Good song though...
            
Submit corrections

comments powered by Disqus
↑ Back to top | Love Equals Death Tabs for Bombs Over Brooklyn. Lyrics for acoustic guitar and electric guitar. 1 Tablatures and chords are parodies/interpretations of the original songs. You may use it for private study, scholarship, research or language learning purposes only