» » »

Bombs Over Brooklyn Tabs (ver.1)

Artists:  A B C D E F G H I J K L M N O P Q R S T U V W X Y Z # 

Bombs Over Brooklyn Tabs (ver.1)

Love Equals Death
Rating:
5/5 (1 vote)

Hard to play? Try these video lessons and learn fast.
                this should be correct for the most part. the notes are correct but some of the number 
times u hit them might be off by a little.

e----------------------------------------|
B----------------------------------------|
G----------------------------------------| x12
D-10h12-10h12-12-12-12-12-12-12-12-12----|
A-10h12-10h12-12-12-12-12-12-12-12-12----|
D-10h12-10h12-12-12-12-12-12-12-12 12----|

e-----------------------------------------|
B-----------------------------------------|
G-----------------------------------------|
D-555555-444444-555555-777777-------------|
A-555555-444444-555555-777777-------------|
D-555555-444444-555555-777777-------------|

e----------------------------------------|
B----------------------------------------|
G----------------------------------------|
D-10h12-10h12-12-12-12-12-12-12-12-12----| x2
A-10h12-10h12-12-12-12-12-12-12-12-12----|
D-10h12-10h12-12-12-12-12-12-12-12-12----|


e-------------------------------------------|
B-------------------------------------------|
G-------------------------------------------|
D-10h12-11-11-11-11-11-11-10-10-10-10-10-10-|
A-10h12-11-11-11-11-11-11-10-10-10-10-10-10-|
D-10h12-11-11-11-11-11-11-10-10-10-10-10-10-|

e-----------------------------------------|
B-----------------------------------------|
G-----------------------------------------|
D-555555-444444-555555-777777-------------|
A-555555-444444-555555-777777-------------|
D-555555-444444-555555-777777-------------|

e------------------------------------------|
B------------------------------------------|
G------------------------------------------|x3
D-12-12-12h15-15-15-15-10-10-10-10-5-5-5-5-|
A-12-12-12h15-15-15-15-10-10-10-10-5-5-5-5-|
D-12-12-12h15-15-15-15-10-10-10-10-5-5-5-5-|
on 3rd time play this 12x D-7-
                          A-7-
                          D-7-
e------------------------------------------|
B------------------------------------------|
G------------------------------------------|
D-7-9-12-10-11-12-12-12-12-12-12-12-12 12--|
A-7-9-12-10-11-12-12-12-12-12-12-12-12-12--|
D-7-9-12-10-11-12-12-12-12-12-12-12-12-12--|


e----------------------------------------|
B----------------------------------------|
G----------------------------------------|
D-10h12-10h12-12-12-12-12-12-12-12-12----| x5
A-10h12-10h12-12-12-12-12-12-12-12-12----|
D-10h12-10h12-12-12-12-12-12-12-12-12----|

e-------------------------------------------|
B-------------------------------------------|
G-------------------------------------------|
D-10h12-11-11-11-11-11-11-10-10-10-10-10-10-|
A-10h12-11-11-11-11-11-11-10-10-10-10-10-10-|
D-10h12-11-11-11-11-11-11-10-10-10-10-10-10-|

e-----------------------------------------|
B-----------------------------------------|
G-----------------------------------------|
D-555555-444444-555555-777777-------------|
A-555555-444444-555555-777777-------------|
D-555555-444444-555555-777777-------------|

e------------------------------------------|
B------------------------------------------|
G------------------------------------------|x3
D-12-12-12h15-15-15-15-10-10-10-10-5-5-5-5-|
A-12-12-12h15-15-15-15-10-10-10-10-5-5-5-5-|
D-12-12-12h15-15-15-15-10-10-10-10-5-5-5-5-|
on 3rd time play this 12x D-7-
                          A-7-
                          D-7-
e--------------------------------------------|
B--------------------------------------------|
G--------------------------------------------|
D-7-9-12-10-11-0-0-0-0-0-0-0-0-0-0-0-3-0-0-0-|
A-7-9-12-10-11-0-0-0-0-0-0-0-0-0-0-0-3-0-0-0-|
D-7-9-12-10-11-0-0-0-0-0-0-0-0-0-0-0-3-0-0-0-|

e------------------|
B------------------|
G------------------|
D--0-0-0-0-0-0-0-0-|(x4 just the low part)
A--0-0-0-0-0-0-0-0-|
D--0-0-0-0-0-0-0-0-|

sorry i didnt figure out the solo so u can do that i guess
so after the solo and the chorus w/o guitar...

e------------------------------------------|
B------------------------------------------|
G------------------------------------------|x1
D-12-12-12h15-15-15-15-10-10-10-10-5-5-5-5-|
A-12-12-12h15-15-15-15-10-10-10-10-5-5-5-5-|
D-12-12-12h15-15-15-15-10-10-10-10-5-5-5-5-|
play this 12x D-7-
              A-7-
              D-7-
e------------------------------------------|
B------------------------------------------|
G------------------------------------------|x3
D-12-12-12h15-15-15-15-10-10-10-10-5-5-5-5-|
A-12-12-12h15-15-15-15-10-10-10-10-5-5-5-5-|
D-12-12-12h15-15-15-15-10-10-10-10-5-5-5-5-|
on 3rd time play this 12x D-7-
                          A-7-
                          D-7-

e------------------------------------------|
B------------------------------------------|
G------------------------------------------|
D-7-9-12-10-11-0-0-------------------------|____
A-7-9-12-10-11-0-0-------------------------|____let it ring.
D-7-9-12-10-11-0-0-------------------------|____
            
Hard to play? Try these video lessons and learn fast. | Correct




comments powered by Disqus
↑ Back to top | Tablatures and chords are parodies/interpretations of the original songs. You may use it for private study, scholarship, research or language learning purposes only