» » »

Louis Xiv, Tina Tabs (ver.2)

Artists:  A B C D E F G H I J K L M N O P Q R S T U V W X Y Z # 

Tina Tabs (ver.2)

Louis Xiv Tabs
 Rating:
4/5 (4 votes)
Tina lessons Tabs too difficult? Try these video lessons and learn fast
                Band; Louis XIV

/=slide up


Guitar 1: Played through most of the song.
e|----------------------------------------------------------------------|
B|--12-----12--10-----10--8-----8--10-----10----------------------------|
G|--11-----11---9------9--7-----7---9------9----------------------------|
D|----------------------------------------------------------------------|
A|----------------------------------------------------------------------|
E|----------------------------------------------------------------------|

Guitar 2: On the bass but you can play it like this.
e|----------------------------------------------------------------------|
B|----------------------------------------------------------------------|
G|----------------------------------------------------------------------|
D|----------------------------------------------------------------------|
A|----------------------------------------------------------------------|
E|--7-----7---7---0--5-----5---5---0--3-----3---3---0--5-----5---5---0--|

Guitar 2 From 0:31-0:48.
e|----------------------------------------------------------------------|
B|----------------------------------------------------------------------|
G|----------------------------------------------------------------------|
D|----------------------------------------------------------------------|
A|----------------------------------------------------------------------|
E|--7-----7------0--5-----5------0--3-----3------0--5-----5------0------|

Guitar 3 comes in at 2:22 and plays
e|--7--|
B|--7--|
G|-----|
D|-----|
A|-----|
E|-----|

Guitar 1 starts doing this at 2:29, and does it a few other times.
e|--10--9-8-7--|
B|--10--9-8-7--|
G|-------------|
D|-------------|
A|-------------|
E|-------------|

Guitar 2 at 2:31
e|--------------------------------------------------|
B|--------------------------------------------------|
G|--------------------------------------------------|
D|--------------------------------------------------|
A|--------------------------------------------------|
E|--7--5--4--0--5--4--2--0--7--5--4--0--5--4--2--0--|

Guitar 3 plays this sometimes towards the end of the song.
e|--5/-7--|
B|--5/-7--|
G|--------|
D|--------|
A|--------|
E|--------|
            
Submit corrections

comments powered by Disqus
↑ Back to top | Louis Xiv Tabs for Tina. Lyrics for acoustic guitar and electric guitar. Tablatures and chords are parodies/interpretations of the original songs. You may use it for private study, scholarship, research or language learning purposes only