» » »

Tina Tabs (ver.1)

Artists:  A B C D E F G H I J K L M N O P Q R S T U V W X Y Z # 

Tina Tabs (ver.1)

Louis Xiv
Rating:
0/5 (0 votes)

Hard to play? Try these video lessons and learn fast.
                Band: Louis XIV

Guitar 1: This is played through the whole song.
e|----------------------------------------------------------------------|
B|--12-----12--10-----10--8-----8--10-----10----------------------------|
G|--11-----11---9------9--7-----7---9------9----------------------------|
D|----------------------------------------------------------------------|
A|----------------------------------------------------------------------|
E|----------------------------------------------------------------------|

Guitar 2: This is on the bass but you can play it like this.
e|----------------------------------------------------------------------|
B|----------------------------------------------------------------------|
G|----------------------------------------------------------------------|
D|----------------------------------------------------------------------|
A|----------------------------------------------------------------------|
E|--7-----7---7---0--5-----5---5---0--3-----3---3---0--5-----5---5---0--|

This is played from 0:31-0:48
e|----------------------------------------------------------------------|
B|----------------------------------------------------------------------|
G|----------------------------------------------------------------------|
D|----------------------------------------------------------------------|
A|----------------------------------------------------------------------|
E|--7-----7------0--5-----5------0--3-----3------0--5-----5------0------|

That's all, it's easy to figure out the timing and where everything goes if you listen 
the song.
            
Hard to play? Try these video lessons and learn fast. | Correct




comments powered by Disqus
↑ Back to top | Tablatures and chords are parodies/interpretations of the original songs. You may use it for private study, scholarship, research or language learning purposes only