» » »

Los Prisioneros, Por Que No Se Van Tabs (ver.1)

Artists:  A B C D E F G H I J K L M N O P Q R S T U V W X Y Z # 

Por Que No Se Van Tabs (ver.1)

Los Prisioneros Tabs
 Rating:
4/5 (4 votes)
Por Que No Se Van lessons Tabs too difficult? Try these video lessons and learn fast
1
                intro/coros
   C                          F
E--8--8--8--8--8--8--8--8--8-1-1-1-1-1-1-1-1-
B--8--8--8--8--8--8--8--8--8-1-1-1-1-1-1-1-1-
G--9--9--9--9--9--9--9--9--9-2-2-2-2-2-2-2-2-
D-10-10-10-10-10-10-10-10-10-3-3-3-3-3-3-3-3-
A--------------------------------------------
E--------------------------------------------

  Am              G#          A#
--5-5-5-5-5-5-5-5-4-4-4-4-4-4-6-6-6-6-6-6-
--5-5-5-5-5-5-5-5-4-4-4-4-4-4-6-6-6-6-6-6-
--5-5-5-5-5-5-5-5-5-5-5-5-5-5-7-7-7-7-7-7-
--7-7-7-7-7-7-7-7-6-6-6-6-6-6-------7-7-7-
------------------------6-6-6-------7-7-7-
------------------------4-4-4-------6-6-6-

versos

   C                      Em
---8--8--8--8--8--8--8--8-7-7-7-7-7-7-7-7-
---8--8--8--8--8--8--8--8-8-8-8-8-8-8-8-8-
---9--9--9--9--9--9--9--9-9-9-9-9-9-9-9-9-
--10-10-10-10-10-10-10-10-9-9-9-9-9-9-9-9-
------------------------------------------
------------------------------------------

  C7              Dm
--3-3-3-3-3-3-3-3-5-5-5-5-5-5-5-5-
--4-4-4-4-4-4-4-4-6-6-6-6-6-6-6-6-
--3-3-3-3-3-3-3-3-7-7-7-7-7-7-7-7-
--5-5-5-5-5-5-5-5-7-7-7-7-7-7-7-7-
----------------------------------
----------------------------------

  Fm              G
--1-1-1-1-1-1-1-1-3-3-3-3-3-3-
--1-1-1-1-1-1-1-1-3-3-3-3-3-3-
--1-1-1-1-1-1-1-1-4-4-4-4-4-4- 
--3-3-3-3-3-3-3-3-5-5-5-5-5-5-   
------------------------------
------------------------------
por que no se van

(solo)
--13--12--13--12------------13--12--13--12------------
----13--13--13---13--13--13---12--12--12---12--12--12-
------------------------------------------------------
------------------------------------------------------
------------------------------------------------------
------------------------------------------------------

--13--12--13--12-----------------------
----11--11--11---11--11-11-11--10------
---------------------------------------
--------------------------------------- se repite dos 
--------------------------------------- veces
---------------------------------------
            
Submit corrections

comments powered by Disqus
↑ Back to top | Los Prisioneros Tabs for Por Que No Se Van. Lyrics for acoustic guitar and electric guitar. 1 Tablatures and chords are parodies/interpretations of the original songs. You may use it for private study, scholarship, research or language learning purposes only