» » »

Los Prisioneros, Por Que No Se Van Bass tabs (ver.2)

Artists:  A B C D E F G H I J K L M N O P Q R S T U V W X Y Z # 

Por Que No Se Van Bass tabs (ver.2)

Los Prisioneros Tabs
 Rating:
4/5 (4 votes)
Por Que No Se Van lessons Tabs too difficult? Try these video lessons and learn fast
                Esta es my primera Tablatura Ojala q les Guste esta Facil...
Solo Deven practicarla si les gusto Voten =)



-|Parte A1|-
     e   e   q   q   e   e  x2  e   e   q   q   e   e  x2  e   e   q   q   e   e  x2
G||--------------------------|--------------------------|------------------|
D||--------------------------|--------------------------|------------------|
A||----------3---3---3-------|----------2---2---2-------|----------1---1---|
E||--0---3---------------3---|--0---3---------------3---|--0---3---------3-|

    e   e   q   q   q  x2
G|----------------------|
D|----------------------|
A|--5---5-------5---5---|
E|----------5-----------|

      e   e   q   q   e   e  x2  e   e   q   q   e   e  x2  e   e   q   q   e   e  x2
G||--------------------------|--------------------------|------------------|
D||--------------------------|--------------------------|------------------|
A||----------3---3---3-------|----------2---2---2-------|----------1---1---|
E||--0---3---------------3---|--0---3---------------3---|--0---3---------3-|
    e   e   q   q   e   e      e   e   q   q   q
G|--------------------------|----------------------|
D|--------------------------|----------------------|
A|--5-------5---5---5-------|--5-------5---5---7---|
E|------5---------------5---|------5---------------|

    e   e   q   q   q      e   e   q   q   q
G|----------------------|----------------------||
D|--3-------3---3---3---|--5-------5---5---5---||
A|------3---------------|------5---------------||
E|----------------------|----------------------||


-|Parte B1|-
     e   e   q   q   e   e      e   e   q   q   q
G||--------------------------|----------------------|
D||--------------------------|----------------------|
A||----------3---3---3-------|----------3---3---3---|
E||--0---3---------------3---|--0---3---------------|

    e   e   q   q   e   e      e   e   q   e   e   e   e
G|--------------------------|------------------------------|
D|----------3---3---3-------|----------3-------3-------5---|
A|------3---------------3---|------3-------3-------3-------|
E|--1-----------------------|--1---------------------------|

    e   e   q   q   e   e      e   e   q   q   q
G|--------------------------|----------------------|
D|----------7---7---7-------|----------7---7---7---|
A|------7---------------7---|------7---------------|
E|--5-----------------------|--5-------------------|

    e   e   q   q   q      e   e   q   q   q
G|----------------------|----------------------|
D|--6-------------------|----------8---8---8---|
A|------6---------------|------8---------------|
E|----------8---8---8---|--6-------------------|


-|Parte A2|-
         e   e   q   q   e   e  x2  e   e   q   q   e   e  x2  e   e   q   q   e   e  x2
G||--------------------------|--------------------------|------------------|
D||--------------------------|--------------------------|------------------|
A||----------3---3---3-------|----------2---2---2-------|----------1---1---|
E||--0---3---------------3---|--0---3---------------3---|--0---3---------3-|
    e   e   q   q   e   e      e   e   q   q   q
G|--------------------------|----------------------|
D|--------------------------|----------------------|
A|--5-------5---5---5-------|--5-------5---5---5---|
E|------5---------------5---|------5---------------|

       e   e   q   q   e   e  x2  e   e   q   q   e   e  x2  e   e   q   q   e   e  x2
G||--------------------------|--------------------------|------------------|
D||--------------------------|--------------------------|------------------|
A||----------3---3---3-------|----------2---2---2-------|----------1---1---|
E||--0---3---------------3---|--0---3---------------3---|--0---3---------3-|
    e   e   q   q   e   e      e   e   q   q   q
G|--------------------------|----------------------|
D|--------------------------|----------------------|
A|--5-------5---5---5-------|--5-------5---5---7---|
E|------5---------------5---|------5---------------|

    q.  e   q   q      q.  e   q   q
G|--------------r---|--------------r---||
D|--3---3---3---e---|--5---5---5---e---||
A|--------------s---|--------------s---||
E|--------------t---|--------------t---||


-|Parte B2|-
     e   e   q   q   e   e      e   e   q   q   q
G||--------------------------|----------------------|
D||--------------------------|----------------------|
A||--3-------3---3---3-------|--3-------3---3---3---|
E||------3---------------3---|------3---------------|

    e   e   q   q   e   e      e   e   q   q   q
G|--------------------------|----------------------|
D|--3-----------------------|--3-------3---3---5---|
A|------3---------------3---|------3---------------|
E|----------1---1---1-------|----------------------|

    e   e   q   q   e   e      e   e   q   q   q
G|--------------------------|----------------------|
D|--7-----------------------|--7-------7---7---7---|
A|------7---------------7---|------7---------------|
E|----------5---5---5-------|----------------------|

    e   e   q   q   q      e   e   q   q   q
G|----------------------|----------------------|
D|--6-------------------|----------8---8---8---|
A|------6---------------|------8---------------|
E|----------8---8---8---|--6-------------------|

     e   e   q   q   e   e      e   e   q   q   q
G|--------------------------|----------------------|
D|--------------------------|----------------------|
A|----------3---3---3-------|----------3---3---3---|
E|--0---3---------------3---|--0---3---------------|

    e   e   q   q   e   e      e   e   q   q   q
G|--------------------------|----------------------|
D|--3-----------------------|--3-------3---3---5---|
A|------3---------------3---|------3---------------|
E|----------1---1---1-------|----------------------|

    e   e   q   q   e   e      e   e   q   q   q
G|--------------------------|----------------------|
D|--7-----------------------|--7-------7---7---7---|
A|------7---------------7---|------7---------------|
E|----------5---5---5-------|----------------------|

    e   e   q   q   q      e   e   q   q   q
G|----------------------|----------------------||
D|--6-------------------|----------8---8---8---||
A|------6---------------|------8---------------||
E|----------8---8---8---|--6-------------------||


-|Parte C1|-
     q   q   q   q      q   q   q   q
G||------------------|------------------||
D|*------------------|------------------*| x2
A|*------6-------6---|------8-------8---*|
E||--6-------6-------|--8-------8-------||

-|Parte C2|-
     q   q   q   e   e      q   q   q   e   e
G||----------------------|----------------------|
D||----------------------|----------------------|
A||------6-------6-------|------8-------8-------|
E||--6-------6-------6---|--8-------8-------8---|

    q   q   q   e   e      q   q   q   q      w
G|----------------------|------------------|------|
D|----------------------|------------------|------|
A|------6-------6-------|------8-------5---|--7---|
E|--6-------6-------6---|--8-------8-------|------|

##----------------------------------------##
||                ORDEN                   ||
##----------------------------------------##

Parte A1      0:14
Parte B1      0:43
Parte A2      0:55
Parte B2      1:24
Parte C1      1:49
Parte A2      1:55
Pausa         2:24
Parte C2      2:49

##----------------------------------------##
||             REFERENCIA                 ||
##----------------------------------------##
  w = redonda
  h = blanca         h. = blanca puntillada
  q = negra          q. = negra puntillada
  e = corchea        e. = corchea puntillada
            
Submit corrections

comments powered by Disqus
↑ Back to top | Los Prisioneros Bass for Por Que No Se Van. Lyrics for acoustic guitar and electric guitar. Tablatures and chords are parodies/interpretations of the original songs. You may use it for private study, scholarship, research or language learning purposes only