» » »

Amazed Bass tabs (ver.1)

Artists:  A B C D E F G H I J K L M N O P Q R S T U V W X Y Z # 

Amazed Bass tabs (ver.1)

Lonestar
Rating:
0/5 (0 votes)

Tabs too difficult? Try these video lessons and learn fast.
                Lonestar

intro-no bass
come in on second part of verse

verse part:         *=let it ring
"i've never been this close to anyone or anything....."
g|-----------------------||  play
d|-----------------------||   x1
a|--3*----------0*-------||
e|--------3*----------1*-||

chorus:
"i dont know how you do that you do....im so in love with you....."
g|---------------------------------------------------------------------|
d|--0*-------------------------0*--------------------------------------|
a|-----------0*----2*-----------------0*----2*--------------------0*---|
e|--------3--------------3*---------3-------------3*----1*---3*------0*|
                                                           next line..
g|-----------| play chorus 
d|---------0*|     x1
a|-----------|
e|----2*-----|

2nd verse 
"the smell of your skin..the taste of your kiss..the way you whisper...."
g|---------------------------------------------------------------------||
d|--------------------0*----------------------0*-----------------------||
a|--0*-----------------------0*---------------------3*---------0*------||
e|--------0*----2*----------------0*----2*---------------3*----------1*||
then play chorus 

during the solo they do a build up kinda of thing that goes like this
x1                                                 this D starts the chorus
g|---------------------------------------------------------|---||
d|-----------------------0-0*------------------------------|-0*||
a|-0-0-0-0-0-0-0-0--3-3----------0-0-0-0-0-0-0-0--3-3------|---||
e|----------------------------------------------------3-3--|---||

here is the last chorus part then the ending is just guitar:
"every little thing that you do oh every little ting that you do....baby im amazed by you"
                      this A is last note of the song
g|-------------------------|----||
d|-------------------------|----||
a|-------------------------|--0*||
e|--1*----3*-----1*----3*--|----||

song sturcture:
verse part x1
chorus z1
verse x1
chorus x1 
build up part x1 then chorus all the way through

its a pretty simple song just listen to time please correct and rate!
            
Tabs too difficult? Try these video lessons and learn fast.


comments powered by Disqus
↑ Back to top | Tablatures and chords are parodies/interpretations of the original songs. You may use it for private study, scholarship, research or language learning purposes only