>
 >
Amazed 2

Amazed 2 Bass Tabs

Lonestar - Amazed 2 chords, tabs, tablatures, lyrics

Guitar lessons | Add/correct | Request | Top 50 tabs Artists:  A B C D E F G H I J K L M N O P Q R S T U V W X Y Z 0-9

Amazed 2 Bass Tabs – Lonestar

CD, Sheet music, Poster

Do you like Amazed 2? Share with your friends now
Bass TabsBass Tabs v2Bass Tabs v3ChordsChords v2Chords v3Chords v4Chords v5Chords v6Chords v7TabsTabs v2Ukulele
-------------------------------------------------------------------------------
			     Amazed - Lonestar
-------------------------------------------------------------------------------


Tuning: Standard

This song uses the same pattern for all of the different sections, the first one looks 
because you are starting on the low E but if you played the octave you would see it's the 
'cross' shape. I think the proper term is the I, V, VI, IV progression.


Intro/Verse
===========

The bass doesn't play the intro or the first verse.

G|---------------------------------------------------------------------------|
D|---------------------------------------------------------------------------|
A|----------6--6-6--8--8-8--4-4-4--------------------------------------------|
E|--4--4-4-------------------------------------------------------------------|x2

Chords: G#|D#m|F|C#


Pre-Chorus
==========

This is where the bass comes in.
G|---------------------------------------------------------------------------|
D|---------------------------------------------------------------------------|
A|--2--2-2-------------------------------------------------------------------|
E|----------2--2-2--4--4-4--0--0-0-------------------------------------------|x2

Chords: B|F#|G#m|E


Chorus
======
G|---------------------------------------------------------------------------|
D|---------------------------------------------------------------------------|
A|--4--4-4-------------------------------------------------------------------|
E|----------4--4-4--6--6-6--2--2-2-------------------------------------------|x2

Chords: C#|G#|A#m|F#
then:


G|---------------------------------------------------------------------------|
D|---------------------------------------------------------------------------|
A|---------------------------------------------------------------------------|
E|--0--0-0--2--2-2--4--4-4--4--4-4-------------------------------------------|

Chords: E|F#|G#|G#

Then repeat everything from the verse.


Solo
====

G|---------------------------------------------------------------------------|
D|---------------------------------------------------------------------------|
A|--2--2-2------------------2--2-2----------4--4-4-4-4-X---------------------|
E|----------2--2-2--4--4-4----------2--2-2-----------------------------------|

Chords: B|F#|G#
        B|F#|C#

Key Change/Outro
==================
(Chorus up 2 semi-tones/frets)

You will need to listen to the song to get the timing right here.
G|---------------------------------------------------------------------------|
D|---------------------------------------------------------------------------|
A|--6--6-6-------------------------------------------------------------------|
E|----------6--6-6--8--8-8--4--4-4-------------------------------------------|x2

Chords: D#|A#|C|G#

then:


G|---------------------------------------------------------------------------|
D|---------------------------------------------------------------------------|
A|---------------------------------------------------------------------------|
E|--2--2-2--4--4-4--4--------------------------------------------------------|x2

Chords: F#|G#

end on A#

===============================================================================





Comments


Popular Lonestar tabs & chords
All the Way Chords
Im Already There 3 Chords
Running Away with my Heart Chords
When You're With Me Chords
County Fair 1 Tabs
Ill Be Home For Christmas Ukulele
Ill Die Tryin Ukulele
Norah Jones Ukulele
Smile Ukulele
You Walked In Ukulele


Song lyrics



↑ Back to top | Tablatures and chords are parodies/interpretations of the original songs. You may use it for private study, scholarship, research or language learning purposes only
© 2014 AZChords.com Contact us | Privacy policy | DMCA | Add/correct tabs | Request tabs | Top 50 tabs