» » »

Lil Chris, Checkin It Out Tabs (ver.1)

Artists:  A B C D E F G H I J K L M N O P Q R S T U V W X Y Z # 

Checkin It Out Tabs (ver.1)

Lil Chris Tabs
Rating:
5/5 (2 votes)
Checkin It Out lessons Tabs too difficult? Try these video lessons and learn fast
                E|-----------------------------------------------|
B|-----------------------------------------------|
G|-6-6---6-6-6-6--10-10-10--6-6------------------|             [x5]
D|-6-6---6-6-6-6--10-10-10--6-6------------------|
A|-4-4---4-4-4-4--8---8--8--4-4------------------|
E|-----------------------------------------------|

Then this part(though i know i cant be sure of her..)
E|------------------------------------------------------|
B|------------------------------------------------------|
G|--6-6-6-6--10-10-10---------------------------6-6-----|
D|--6-6-6-6--10-10-10--8-8---8-8-8-8--10-10-10--6-6-----|
A|--4-4-4-4--8--8--8---8-8---8-8-8-8--10-10-10--4-4-----|
E|---------------------6-6---6-6-6-6--8--8--8-----------|

Then the main riff again:

E|-----------------------------------------------|
B|-----------------------------------------------|
G|-6-6---6-6-6-6--10-10-10--6-6------------------|     [x5]
D|-6-6---6-6-6-6--10-10-10--6-6------------------|
A|-4-4---4-4-4-4--8---8--8--4-4------------------|
E|-----------------------------------------------|

When he sings I'm in a sweat about it, I can't forget about it,
there's a light change:

E|----------------------------------------|
B|----------------------------------------|
G|-6-6-6-6--10-10-10----------------------|
D|-6-6-6-6--10-10-10--4--4-8--8--11-------| (Woah-oh-oh-oh-oah)
A|-4-4-4-4--8--8--8---4--4-8--8--11-------|
E|--------------------2--2-6--6--9--------|

E|--------------------------|
B|--------------------------|
G|--------------------------|
D|--4--4-8-------6-6---6-6--|
A|--4--4-8------------------|
E|--2--2-6---4-4-----4------|

Chorus, same chords but strummed more often: eg.
E|----------------------------------------------------------|
B|----------------------------------------------------------|
G|-6-6-6-6-6-6-6-6-6-6-6-6-10-10-10-6-6-6-6-6-6-6-6-6-6-6-6-|
D|-6-6-6-6-6-6-6-6-6-6-6-6-10-10-10-6-6-6-6-6-6-6-6-6-6-6-6-|
A|-4-4-4-4-4-4-4-4-4-4-4-4-8--8--8--4-4-4-4-4-4-4-4-4-4-4-4-|
E|----------------------------------------------------------|
            
Submit corrections

comments powered by Disqus
↑ Back to top | Lil Chris Tabs for Checkin It Out. Lyrics for acoustic guitar and electric guitar. Tablatures and chords are parodies/interpretations of the original songs. You may use it for private study, scholarship, research or language learning purposes only