» » »

Lil Chris, Checkin It Out Tabs (ver.2)

Artists:  A B C D E F G H I J K L M N O P Q R S T U V W X Y Z # 

Checkin It Out Tabs (ver.2)

Lil Chris Tabs
 Rating:
3.5/5 (8 votes)
Checkin It Out lessons Tabs too difficult? Try these video lessons and learn fast
1
                Ok so basicly this is my tab for the lil' chris song checkin it out.such a good song u 
2 agree with me there. And this is the only tab for this song and im only 12 but dont let 
put u off its a good tab, and one of a kind.

LEGEND:
*= Tap string with pick
()= Palm mute

All right lets do this:

VERSE:

E|-----------------------------------------------------------|
B|-----------------------------------------------------------| x2
G|--6-6---6-6-6-6-6-6-6-6-6-10-10-6-6------------------------|
D|--6-6---6-6-6-6-6-6-6-6-6-10-10-6-6------------------------|
A|--4-4---4-4-4-4-4-4-4-4-4-8--8--4-4------------------------|
E|-----------------------------------------------------------|

E|-----------------------------------------------------------|
B|-----------------------------------------------------------|
G|--3-3------3-3-3-3-3-3-3--5-5-5-6-6------------------------|
D|--3-3------3-3-3-3-3-3-3--5-5-5-6-6------------------------|
A|--1-1------1-1-1-1-1-1-1--3-3-3-4-4------------------------|
E|-----------------------------------------------------------|

Chorus:
The chorus is the same as the verse.

Verse 2:

Solo:

E|-----------------------------------------------------------|
B|--7-7-7-7-7-6----*----10-10-10-10-10-9---------------------|x2
G|-----------------------------------------------------------|
D|--------------------------------------------9-9-9-9-9-9-9-9|
A|--------------------------------------------9-9-9-9-9-9-9-9|
E|--------------------------------------------7-7-7-7-7-7-7-7|

And there is your lil' chris checkin' it out. its the standard tuning by the way:
E-A-D-G-B-E.

C u round.
            
Submit corrections

comments powered by Disqus
↑ Back to top | Lil Chris Tabs for Checkin It Out. Lyrics for acoustic guitar and electric guitar. 1 Tablatures and chords are parodies/interpretations of the original songs. You may use it for private study, scholarship, research or language learning purposes only