>
 >
Fear Of Heights 1

Fear Of Heights 1 Guitar Tabs

Light This City - Fear Of Heights 1 chords, tabs, tablatures, lyrics

Guitar lessons | Add/correct | Request | Top 50 tabs Artists:  A B C D E F G H I J K L M N O P Q R S T U V W X Y Z 0-9

Fear Of Heights 1 Guitar Tabs – Light This City

CD, Sheet music, Poster

Do you like Fear Of Heights 1? Share with your friends now
TabsTabs v2
Light This City
Fear of Heights
C-G-C-F-A-D





                  Riff 1 Gt.1 [right side]
-----------------------------------------------------------------|
-----------------------------------------------------------------|
-----------------------------------------------------------------|
-----------------------------------------------------------------|
-2-1---2-1-2-2-1------------pm**********--------^----************|
------------------2-2-2-2-1-111111111111-2-2-2-2-4-1-111111111111|


-------------------------------------------------|
-------------------------------------------------|
-------------------------------------------------|
-----------************--------^----************-|
-2-2-2-2-1-111111111111-2-2-2-2-4-1-111111111111-|
-------------------------------------------------|

last time
--------------------------------------------------------|
--------------------------------------------------------|
-4-4-4-4-3----4-4-4-4-6-3-------------------------------|
-x-x-x-x-x----x-x-x-x-x-x--------------------------^----|
-2-2-2-2-1----2-2-2-2/4-1-------------------------------|
-------------------------------2-2-2-2-1----2-2-2-2-4-1-|


                     Riff 1 Gt.2 [left side] repeats
---------------------------------------------------------------------|
---------------------------------------------------------------------|
---------------------------------------------------------------------|
6-5----6-5-6-6-5-----------------------------------------------------|
6-5----6-5-6-6-5----------------pm**********--------^----************|
6-5----6-5-6-6-5------2-2-2-2-1-111111111111-2-2-2-2-4-1-111111111111|

-------------------------------------------------|
-------------------------------------------------|
--------------------------------^----------------|
-6-6-6-6-5---------------6-6-6-6-8-5-------------|
-6-6-6-6-5-************--6-6-6-6-8-5-************|
-6-6-6-6-5-555555555555--6-6-6-6-8-5-555555555555|


Riff 2   0:34     2 times
-------------------------------------------|
-------------------------------------------|
----------------------------------^----^---|
--^---^--***---^----^----*--*--*-7-10-7-10-|
-6-9-6-9-999--9-12-9-12-12-12-12-----------|
-------------------------------------------|

2 times
------------------------------------------|
------------------------------------------|
-----------------------------------^---^--|
--^---^--***---^----^----*--*--*--6-9-6-9-|
-5-8-5-8-888--8-11-8-11-11-11-11----------|
------------------------------------------|

higher harmony at 0:51            2 times
------------------------------------------|
----------------------------------^---^---|
--^---^--***---^----^----*-*--*--5-8-5-8--|
-4-7-4-7-777--7-10-7-10-10-10-10----------|
------------------------------------------|
------------------------------------------|

-------------------------------------|
----------------------------^---^----|
--^---^--***---^---^---***-4-7-4-7---|
-3-6-3-6-666--6-9-6-9--999-----------|
-------------------------------------|
-------------------------------------|

Riff 1 repeats

     Riff 3  1:32      2 times
-------------------------------------------|
-------------------------------------------|
-------------------------------------------|
-------------^---^------^---^------^----^--|
-1-1-1-1--\-1-4-1-4-**-4-7-4-7-**-7-10-7-10|
-1-1-1-1--\-1-4-1-4-44-4-7-4-7-77-7-10-7-10|

2 times
--------------------------------|
--------------------------------|
--------------------------------|
--^---^------^---^------^---^---|
-0-3-0-3-**-3-6-3-6-**-6-9-6-9--|
-0-3-0-3-33-3-6-3-6-66-6-9-6-9--|

Higher harmony right side at
----------------------------------------|
----------------------------------------|
----------------------------------------|
----------------------------------------|
-^---^---**--^----^----*--*---^-----^---|
4-7-4-7--77-7-10-7-10-10-10-10-13-10-13-|

------------------------------------|
------------------------------------|
------------------------------------|
------------------------------------|
--^---^--**--^---^--**--^----^------|
-3-6-3-6-66-6-9-6-9-99-9-12-9-12----|

Riff at 1:51    2 times
----------------------------------------|
--------------------------------10------|
----------------------8----8-11----11-8-|
-----------7-10-7-10----10--------------|
-9-12-9-12------------------------------|
----------------------------------------|
2 times
---------------------------------------|
----------------------------9----------|
-------------------7---7-10---10-7-----|
-----------6-9-6-9---9-----------------|
-8-11-8-11-----------------------------|
---------------------------------------|

Riff 1 repeats 

Riff 4  2:23
----------------------------------|
----------------------------------|
----------------------------------|
----------------------------------|
-1--*-*-1-*-*-*-2-*-*-*-3-*-*-*---|
-1--1-4---4-1-4---4-1-4---4-1-4---|

-----------------------|-R plays-|-L plays-|
-----------------------|---------|---------|
-----------------------|---------|---------|
-----------------------|-8-7-5---|-5-3-----|
-5-*-*-5-*-*-*-6-*-*-*-|-------8-|-----6-5-|
-5-5-8---8-5-8---8-5-8-|---------|---------|

Riff 5 Right side 2:48       repeats
-------------------------------------|
-------------------------------_-----|
----7------7-8----7-----------/ \----|
-5----7-8------5----7-8--7-7-7-8-7---|
-------------------------------------|
-------------------------------------|

left side   repeats
-----------------------------------------|
-----------------------------------_-----|
-------------3-5------------------/ \----|
----8---3-5----------8--3-5--3-3-3-5-3---|
-6----------------6----------------------|
-----------------------------------------|


Riff 6 melody   3:10           repeats
------------------------------------------------------------------------|
-------*-------*-*-*---*------------------*---------*-------------------|
---*-*-7-*-*-*-8-7-5-*-5-*-*-------*---*-10--*--*-*-8--*--*-*--*-*------|
5--7-8---8-7-5-------8---8-7-*--8--10-12----12-10-8---12-10-8-10-8-*--*-|
-----------------------------8-------------------------------------12-8-|
------------------------------------------------------------------------|

Riff 6 rythm gtr. 
----------------------------------------------------------------------------|
----------------------------------------------------------------------------|
----------------------------------------------------------------------------|
---***********************************---***********************************|
-1-1-1-1-1-1-1-1-1-1-1-1-1-1-1-1-1-1-1-5-5-5-5-5-5-5-5-5-5-5-5-5-5-5-5-5-5-5|
-1-1-1-1-1-1-1-1-1-1-1-1-1-1-1-1-1-1-1-5-5-5-5-5-5-5-5-5-5-5-5-5-5-5-5-5-5-5|

------------------------------------------------------------------|
------------------------------------------------------------------|
------------------------------------------------------------------|
--***********************************---*-*-***-***---*-*-***-***-|
1-1-1-1-1-1-1-1-1-1-1-1-1-1-1-1-1-1-1-5-5-5-555-555-3-3-3-333-333-|
1-1-1-1-1-1-1-1-1-1-1-1-1-1-1-1-1-1-1-5-5-5-555-555-3-3-3-333-333-|


interlude
right                left                  rythm
-------------------|---------------------|-------------|
-------------------|---------------------|-------------|
------7------------|-------3-------------|-------------|
5-7-8---8-7-5-7-7-7|---3-5---5-3---3-3-3-|-------------|
-------------------|-6-----------6-------|-1--333------|
-------------------|---------------------|-1--333------|


Riff 7 Melody    3:33
-----------_---------------------------------------------|
----------/ \----------------------------------^---------|
-----7---7-8-7-12-10-8-7-8--------7-5---------5-7-7/8----|
-5-8---8----------------------5-8-----8-7---7---------7--|
----------------------------6-------------8--------------|
---------------------------------------------------------|

------------_-------------------------------------------|
-----------/ \------------------------------------------|
-----7----7-8-7-12-10-8-7-8-------7-5-------------------|
-5-8---8----------------------5-8-----8-7-----7---8-7---|
----------------------------6-------------5-8---5-----8-|
--------------------------------------------------------|

Riff 7 Rythm  just showing root notes 
fill in with picking
----------------------------------------------------|
----------------------------------------------------|
----------------------------------------------------|
--------------------------------7---8--10--11-------|
-5--8--10--5--8--10--5--8--10---5---6--8---9--------|
-5--8--10--5--8--10--5--8--10-----------------------|

Riff 7 higher melody
---------------__----------------------------------------------------------|
--------------/  \---------------------------------------------^-----------|
------10----10-12-10--15-14-12-10-12---------10-8-------------8-10-10/12---|
-8-12----12-----------------------------8-12------12-10--7-10------------10|
-------------------------------------10------------------------------------|
---------------------------------------------------------------------------|

---------------__--------------------------------------------------------|
--------------/  \-------------------------------------------------------|
------10----10-12-10--15-14-12-10-12---------10-8-7----------------^-----|
-8-12----12-----------------------------8-12-------10-------10---12-10---|
-------------------------------------10----------------8-12----8-------12|
-------------------------------------------------------------------------|

Riff 8 melody starts then fades right 5 times    2nd time not tremelo pckd
-----------------------------------------|--------------------------------|
-----------------------------------------|------///---********************|
///--///------------------///-///-///-///|///-///5-///7-5-3-5-3-3---------|
5----8--///-///--///-///--8----0---8---4-|5---8---7------------7-7-5-7-5-3|
---------5---6---8----5------------------|--------------------------------|
-----------------------------------------|--------------------------------|

Higher harmony
-------------------------------|-------------------------------------------|
-------------------------------|----------///-----*************************|
///--///---------///----//////-|///--///--8--///--10-8-7-8-7---7-----------|
-8----12-///-///-12-///-12-7---|-8----12-----10--------------10-10-8-10-8-7|
---------8---10-----10---------|-------------------------------------------|
-------------------------------|-------------------------------------------|


rythm
---------------------|------------------------------|
---------------------|------------------------------|
---------------------|------------------------------|
--------------///----|-///-///------8--10---11------|
-5-5--8--///---5-----|--6---8--9----6---8---9---5---|
-5-5--8--10-------3--|--------------------------5-\-|





Comments


Popular Light This City tabs & chords
Beginning With Release Tabs
Beginning With Release 1 Tabs
Exile Intro Tabs
Fear Of Heights Tabs
Guardian In A Passerby Tabs
Last Catastrophe Tabs
Sierra Tabs
Stormchaser Tabs
The Eagle Intro Tabs
Wake Me At Sunset Tabs


Song lyrics



↑ Back to top | Tablatures and chords are parodies/interpretations of the original songs. You may use it for private study, scholarship, research or language learning purposes only
© 2014 AZChords.com Contact us | Privacy policy | DMCA | Add/correct tabs | Request tabs | Top 50 tabs