» » »

Fear Of Heights Tabs (ver.1)

Artists:  A B C D E F G H I J K L M N O P Q R S T U V W X Y Z # 

Fear Of Heights Tabs (ver.1)

Light This City
Rating:
5/5 (1 vote)

Hard to play? Try these video lessons and learn fast.
                Light This City - Fear Of Heights


I had reamins of the gods before facing the thousands came out and i loved it. i don't know why but
i wasn't really interested in writing any tabs for it. when facing the thousands came 
i was blown away.
this is one of my favorite songs off the album. There are a couple harmony stuff missing 
in the intro
and where it says near the bottom. Took me a little while to write the tab, so if you 
to add on yourself
SOME OF IT MAYBE
WRONG, and yes it is sloppy. but i think for the most part it is accurate. the timming 
nuts in this song and
the picking is really quick on the palm mutes in the verse and chorus. also if anyone 
any Facing The Thousands
lyrics, if you could send them to my e-mail i would love you. i can't find them 
Good Luck!


Intro


Guitar 1
D#-------------------------------------------------------------------------------|
A#-------------------------------------------------------------------------------|
F#-------------------------------------------------------------------------------|
C#-----5-4~--5-4-5-5-4~---1-1-1-1-0---------1-1-1-1h3-0--------------------------|
G#-----5-4~--5-4-5-5-4~---1-1-1-1-0---------1-1-1-1h3-0--------------------------|
C#-----5-4~--5-4-5-5-4~---1-1-1-1-0-000000--1-1-1-1h3-0-000000-------------------|
                                  ......              ......

-------------------------------------------------------------------------------|
-------------------------------------------------------------------------------|
-------------------------------------------------------------------------------|
-------------------------------------------------------------------------------|  x2
----5-5-5-5-4--------5-5-5-5h7-4--------1-1-1-1-0--------1-1-1-1h3-0-----------|
----5-5-5-5-4-444444-5-5-5-5h7-4-444444-1-1-1-1-0-000000-1-1-1-1h3-0-000000----|
              ......             ......           ......             ......

-------------------------------------------------------------------------------|
-------------------------------------------------------------------------------|
-------------------------------------------------------------------------------|
-------------------------------------------------------------------------------|
----5-5-5-5-4~--5-5-5-5h7-4~---1-1-1-1-0~--1-1-1-1h3-0-------------------------|
----5-5-5-5-4~--5-5-5-5h7-4~---1-1-1-1-0~--1-1-1-1h3-0-------------------------|

Verse I (The 8 and 11 as well as the 7 and 10 are played fast) (Whole Verse played 4 times)

-------------------------------------------------------------------------------|
-------------------------------------------------------------------------------|
-------------------------------------------------------------------------------|
-------------------------------------------------------------------------------| x2
--6h8-6h8-8888-8h11-8h11-11-11-11-11h14-11h14----------------------------------|
-------------------------------------------------------------------------------|
          ....           .  .  .

-------------------------------------------------------------------------------|
-------------------------------------------------------------------------------|
-------------------------------------------------------------------------------| x2
-------------------------------------------------------------------------------|
--5h7-5h7-7777-7h10-7h10-10-10-10-10h13-10h13----------------------------------|
-------------------------------------------------------------------------------|
          ....           .  .  .


Chorus

-------------------------------------------------------------------------------|
-------------------------------------------------------------------------------|
-------------------------------------------------------------------------------|
-------------------------------------------------------------------------------|
-----5-4--------5-4-5-5-4--------1-1-1-1-0--------1-1-1-1h3-0------------------|
-----5-4-444444-5-4-5-5-4-444444-1-1-1-1-0-000000-1-1-1-1h3-0-000000-----------|
         ......           ......           ......             ......
-------------------------------------------------------------------------------|
-------------------------------------------------------------------------------|
-------------------------------------------------------------------------------|
-------------------------------------------------------------------------------|
----5-5-5-5-4--------5-5-5-5h7-4--------1-1-1-1-0--------1-1-1-1h3-0-----------|
----5-5-5-5-4-444444-5-5-5-5h7-4-444444-1-1-1-1-0-000000-1-1-1-1h3-0-000000----|
              ......             ......           ......             ......
-------------------------------------------------------------------------------|
-------------------------------------------------------------------------------|
-------------------------------------------------------------------------------|
-------------------------------------------------------------------------------|
----5-5-5-5-4~--5-5-5-5h7-4~---1-1-1-1-0~--1-1-1-1h3-0-0-0-0-------------------|
----5-5-5-5-4~--5-5-5-5h7-4~---1-1-1-1-0~--1-1-1-1h3-0-0-0-0-------------------|
                                                     . . . .


Verse II (Whole Verse played 4 times)

-------------------------------------------------------------------------------|
-------------------------------------------------------------------------------|
-------------------------------------------------------------------------------|
-------------------------------------------------------------------------------| x2
-------------------------------------------------------------------------------|
--1h3-1h3-33-3h6-3h6-66-6h9-6h9------------------------------------------------|
          ..         ..

-------------------------------------------------------------------------------|
-------------------------------------------------------------------------------|
-------------------------------------------------------------------------------|
-------------------------------------------------------------------------------| x2
-------------------------------------------------------------------------------|
--0h2-0h2-22-2h5-2h5-55-5h8-5h8------------------------------------------------|
          ..         ..

Chorus

-------------------------------------------------------------------------------|
-------------------------------------------------------------------------------|
-------------------------------------------------------------------------------|
-------------------------------------------------------------------------------|
-----5-4~-5-4-5-5-4~--1-1-1-1-0~--1-1-1-1h3-0~---------------------------------|
-----5-4~-5-4-5-5-4~--1-1-1-1-0~--1-1-1-1h3-0~---------------------------------|

-------------------------------------------------------------------------------|
-------------------------------------------------------------------------------|
-------------------------------------------------------------------------------|
-------------------------------------------------------------------------------|
----5-5-5-5-4~--5-5-5-5h7-4~---1-1-1-1-0~--1-1-1-1h3---------------------------|
----5-5-5-5-4~--5-5-5-5h7-4~---1-1-1-1-0~--1-1-1-1h3---------------------------|


Breakdown

-------------------------------------------------------------------------------|
-------------------------------------------------------------------------------|
-------------------------------------------------------------------------------|
-------------------------------------------------------7-6-4-------------------| x4
---------------------------------------4-------5-------------7-----------------|
---0-0-5-7-0-0-5-8-0-0-5-9-0-0-5-4-0-4---4-0-4---4-0-4-------------------------|
   . . .   . . .   . . .   . . .   . .   . . .   . . .


BRIDGE

Guitar 1

-------------------------------------------------------------------------------|
-------------------------------------------------------------------------------|
-------------------------------------------------------------------------------|
---------------7/9-------------------------------------------------------------| x2
--5~---9-7-9~-------5~---9-7-9~-7~---------------------------------------------|
-------------------------------------------------------------------------------|


Guitar 2

-------------------------------------------------------------------------------|
-------------------------------------------------------------------------------|
-------------------------------------------------------------------------------|
-----------------11/12---------------------------------------------------------| x2
--9~--12-11-12~---------9~---12-11-12~-11~-------------------------------------|
-------------------------------------------------------------------------------|


--------------------------------------------------------------------------------------|
--------------------------------------------------------------------------------------|
--------------------------------------------------------------------------------------|
----------11---------12---------9----------------14----------12-----------------------| x4
--9-11-12----12-9-11----11-9-12---11-9-12~-15-16----16-15-12----16-15-12-14-12-11-9~--|
--------------------------------------------------------------------------------------|


------------------------------------------------------------------------------------|
------------------------------------------------------------------------------------|
------------------------------------------------------------------------------------|
------------------------------------------------------------------------------------|
--9-11-12-11-10-9~--11-11-11-12~----------------------------------------------------|
------------------------------------------------------------------------------------|

(don't know the harmony to this part yet)
------------------------------------------------------------------------------------|
------------------------------------------------------------------------------------|
----------------11-9----------------------------------------------------------------|
---9-11-12-11-9------12-11-11-12----9-11-12-11-9----7-9-11-9-7----------------------|
-9-------------------------------12--------------11------------9--------------------|
------------------------------------------------------------------------------------|


Guitar 1

------------------------------------------------------------------------------------|
------------------------------------------------------------------------------------|
------------------------------------------------------------------------------------|
--4"-7"-6'--------7"-6"-7"----------------------------------------------------------| x5
-----------5"-4"-----------7"-------------------------------------------------------|
------------------------------------------------------------------------------------|


Guitar 2 (Enter after Guitar 1 plays twice)

------------------------------------------------------------------------------------|
------------------------------------------------------------------------------------|
------------------------------------------------------------------------------------|
--7"-11"-10"--------11"-10"-11"-----------------------------------------------------| x3
-------------9"-8"--------------11"-------------------------------------------------|
------------------------------------------------------------------------------------|


Guitar 1 (outro)

----------------------------------------------------------------------------------------|
----------------------------------------------------------------------------------------|
----------------------------------------------------------------------------------------|
--4"-7"-9"-6"----11-9-7-9-7----7---------------------------11-9-7-9-7----7--------------|
----------------------------11---11-9-11-7-9~--12--14-11~-------------11---11-9-11-7-9~-|
----------------------------------------------------------------------------------------|

Guitar 2 (Outro)

--------------------------------------------------------------------------------------|
--------------------------------------------------------------------------------------|
--7"-11"-12"-9"--9-7-6-7-6---6----------------------------9-7-6-7-6---6---------------|
---------------------------9---9-7-9-7-6-7~---11--12--9~------------9---9-7-9-7-6-7*~-|
--------------------------------------------------------------------------------------|
--------------------------------------------------------------------------------------|
            
Hard to play? Try these video lessons and learn fast. | Correct




comments powered by Disqus
↑ Back to top | Tablatures and chords are parodies/interpretations of the original songs. You may use it for private study, scholarship, research or language learning purposes only