» » »

Ligabue, Il Giorno Di Dolore Che Uno Ha Tabs (ver.2)

Artists:  A B C D E F G H I J K L M N O P Q R S T U V W X Y Z # 

Il Giorno Di Dolore Che Uno Ha Tabs (ver.2)

Ligabue Tabs
Rating:
5/5 (1 vote)
Il Giorno Di Dolore Che Uno Ha lessons Tabs too difficult? Try these video lessons and learn fast
                IL GIORNO DI DOLORE CHE UNO HA

Riff principale (usato nell'intro e sotto alcune delle strofe):
(Chitarra acustica leggermente distorta)
   G           Bm  C               Am  G4/B C   D4sus9
e:-------------x---------------------------------------|
B:-------------3----------------------1---1---1---3----|
G:-4--5--4-----4---4-5-4---7---------------------------|
D:----------5--4---------5---5-------------------------|
A:-------------2----------------5\0-0---2---3---5------|
E:-------------x---------------------------------------|
               ^
               |
        lasciar suonare il Bm
(il Bm secondo me ci sta bene solo qui, nella strofa uso sempre il D)

[A me non pare, cmq... fate voi]

G4/B:x20010 non so se il nome dell'accordo e' proprio giusto, comunque
D4sus9: x54030 anche questo non so se e' proprio giusto
       G
Quando tutte le parole
        D
sai che non ti servon piu'
       C
quando sudi il tuo coraggio
        Am   G4/B  C  D4sus9
per non startene laggiu'.

(questo per suonarlo con una sola chitarra, senza il riff - l'ho visto
fare
una volta al Liga - ma anche se lo fai sempre non ci sta male)

       G
Quando tiri in mezzo Dio
       D
o il destino o chissa' che
       C
che nessuno te lo spiega
        Am   G4/B  C  D4sus9
perche' sia successo a te.
       D
Quando tira un po' di vento
       C
che ci si rialza un po'
     G
e la vita e' un po' piu' forte

(dopo la prima strofa, con due chitarre facci questo)

e -3-----3-2-----2-3-----3-2--------|
B ---3-------3-------3-------3------|
G -----0-------0-------0-------0----|

        D
del tuo dirle 'grazie no'

(qui io faccio cosi': Re con mezzo barré sul secondo e col passo da
xx0232 a
xx0432 a xx0532
e torno su xx0232)

       C
quando sembra tutto fermo
(qui per seguire la chitarra ci vorrebbe un riff del genere)

D ----------------0---------|
A --0--2--3----3-----0------|
E --------------------------|

(per tenere l'accordo io faccio un passaggio veloce sul Do, passando da x02010 a x22010 
x32010. Sul re invece me ne frego, tanto ci viene da solo, all'incirca)
                 D
la tua ruota girera'
         C             D          G
sopra il giorno di dolore che uno ha.
Tu tu tu tu tu tu...

D C Am
         G
Quando indietro non si torna
       D
quando l'hai capito che
       C
che la vita non e' giusta
     Am   G4/B  C  D4sus9
come la vorresti te
       G
quando farsi una ragione
       D
vorra' dire vivere
         C
te l'han detto tutti quanti
        Am   G4/B  C  D4sus9
che per loro e' facile
       D
quando batte un po' di sole
     C
dove ci contavi un po'
     G
e la vita e' un po' piu' forte
        D
del tuo dirle 'ancora no'
       C
quando la ferita brucia
                  D
la tua pelle si fara'
         C            D           G
Sopra il giorno di dolore che uno ha.
                     D C
Tu tu tu tu tu tu...
Am                   G D C
Tu tu tu tu tu tu...
Am7
Tu tu tu tu tu tu...
(ogni linea verticale delimita una battuta)
Solo:  | D9 | C9 | G G7+ | G G7+| C9 | D | D | C

E||----------------0-------|-------------------------------|
B||-----------0---------0--|--1-0---0----------------------|
G||------------------------|------2---2-0---0--------------|
D||--------0---------------|--------------2---2-0----------|
A||--0--2------------------|----------------------3----2-0-|
E||------------------------|-------------------------------|

---------------------------|-------------------------|
---------------------------|-------------------------|
----------0---0-----0--2-0-|------0---2--------0--2--|
--0---2---------0-2--------|--2------------0-2-------|
---------------------------|-------------------------|
---------------------------|-------------------------|

-----3-------3-------3----|-----2--------5--------5--|
--0-------0-------0-----0-|----------0--------0------|
--------------------------|--------------------------|
--------------------------|--------------------------|
--------------------------|--------------------------|
--------------------------|--------------------------|

--8----------------------------|-----------------------------|
-----8--6-6-4---6---4-5--------|-----------------------------|
--------------5---5-----5-3-0--|--0-2--2--2-0-2--2--2-0-2--2-|
-------------------------------|-----------------------------|
-------------------------------|-----------------------------|
-------------------------------|-----------------------------|

----------------3--5--7--|------------------------|---------------3--5--7--|
--0--------0-------------|----------0-------------|----------0-------------|
-----0--2----------------|--------------0-2--0----|----0--2----------------|
-------------------------|----5--7----------------|------------------------|
-------------------------|------------------------|------------------------|
-------------------------|------------------------|------------------------|

-------5--7----------|---------------------5--|----5------------0-3--|
----8----------------|----------0-----8-------|---------------3------|
---------------------|-------------7----------|----------------------|
---------------------|----5--7----------------|----------------------|
---------------------|------------------------|----------------------|
---------------------|------------------------|----------------------|

--7----5-5-3-0-5-0-3----------|----------------------|------0---3---5-------||
--8---------------------------|----------------------|--3-------------------||
----------------------2-0-----|----------2-----------|----------------------||
------------------------------|------2-------2-------|----------------------||
--------------------------3-2-|--0-------------------|----------------------||
------------------------------|----------------------|----------------------||

          G
Quando il cuore senza un pezzo
       D
il suo ritmo prendera'
       C
quando l'aria che fa il giro
          Am   G4/B  C  D4sus9
i tuoi polmoni becchera'
       G
quando questa merda intorno
       D
sempre merda restera'
    C
riconoscerai l'odore
        Am   G4/B  C  D4sus9
perche' questa e' la realta'
       D
quando la tua sveglia suona
        C
e tu ti chiederai che or'e'

       G
che la vita e' sempre forte
      D
molto piu' che facile
       C
quando sposti appena il piede
                       D
li' il tuo tempo crescera'
         C            D           G
Sopra il giorno di dolore che uno ha.
                     D C Am
Tu tu tu tu tu tu...
G                    D C
Tu tu tu tu tu tu...
Am7
Tu tu tu tu tu tu...
Solo: G D C Am7  (x4)
C G

[Solo]
[grazie a Francesco D'Offizi]

E||------------------------|-----------------------------------|
B||------------------------|-----------------------------------|
G||----------------9-------|-----------------------------------|
D||-----------9---------9--|--10-9-7-9-7-----------------------|
A||--------5---------------|-------------10-7-10-7-------------|
E||--5--7------------------|-----------------------10-8----7-5-|

---------------------------------|----------------------------|
---------------------------------|----------------------------|
---------------------------------|----------------------------|
----------------------------7----|-----------7-------------7--|
-------7---10---10----7-10----10-|--7---10-----------7-10-----|
--10---------------10------------|----------------10----------|

--------------------------|----------------------------|
-----8-------8-------8----|-----7--------10--------10--|
--------------------------|----------------------------|
--9-------9-------9-----9-|----------9---------9-------|
--------------------------|----------------------------|
--------------------------|----------------------------|

--8-----------------------------------|--------------------------------|
-----8--------------------------------|--------------------------------|
--------10-10-8----10----8-9----------|--------------------------------|
----------------10----10-----10-8-----|-----7--7--7----7--7--7----7--7-|
----------------------------------10--|--10---------10---------10------|
--------------------------------------|--------------------------------|

----------------------------|---------------------------|
-----------------8--10--12--|---------------------------|
----------------------------|---------------------------|
--9------7--9---------------|--------7--9------7--------|
-----10---------------------|----10---------10----10----|
----------------------------|---------------------------|

---------------------------|-----------------------|--------------------------|
----------------8--10--12--|----8--10--12----------|-----------------8----10--|
---------------------------|-----------------------|--------------7-----------|
--------7--9---------------|-----------------------|--------7--9--------------|
----10---------------------|-----------------------|----10--------------------|
---------------------------|-----------------------|--------------------------|

-----------------------|--7----5-5-3-0-5-0-3----------|----------------------|
----10--------------8--|--8---------------------------|----------------------|
----------------7-9----|----------------------2-0-----|----------2-----------|
-----------------------|------------------------------|------2-------2-------|
-----------------------|--------------------------3-2-|--0-------------------|
-----------------------|------------------------------|----------------------|
                         G
------0---3---5-------|--3----------------||
--3-------------------|--3----------------||
----------------------|--4----------------||
----------------------|--5----------------||
----------------------|--5----------------||
----------------------|--3----------------||
            

comments powered by Disqus
↑ Back to top | Ligabue Tabs for Il Giorno Di Dolore Che Uno Ha. Lyrics for acoustic guitar and electric guitar. Tablatures and chords are parodies/interpretations of the original songs. You may use it for private study, scholarship, research or language learning purposes only