>
 >
Il Giorno Di Dolore Che Uno Ha

Il Giorno Di Dolore Che Uno Ha Guitar Tabs

Ligabue - Il Giorno Di Dolore Che Uno Ha chords, tabs, tablatures, lyrics

Guitar lessons | Add/correct | Request | Top 50 tabs Artists:  A B C D E F G H I J K L M N O P Q R S T U V W X Y Z 0-9

Il Giorno Di Dolore Che Uno Ha Guitar Tabs – Ligabue

CD, Sheet music, Poster

Do you like Il Giorno Di Dolore Che Uno Ha? Share with your friends now
ChordsTabsTabs v2Ukulele


Guitar 1 with vibrato effect or pedal

-||--------------------|----------------------------------------------------|-
-||---3------3-----3---|---3-----3-----3------1---1---1---3-----------------|-
-||---4--5---4-----4---|---4--5--4------------------------------------------|-
-||---0--0------5--4---|---0--0-----5-------------------0-------------------|-
-||--------------------|------------------5\0---2---3-----------------------|-
-||--------------------|----------------------------------------------------|-
                                                     Quando tutte le parole.. 

-|--2--|--3---2-------|--3--------|-------------------|--0------3-----------|-
-|--3--|--3------3----|--3--------|----3---3---3---3--|--3------3----3------|-
-|--2--|--2--------2--|--4--5--4--|-------------------|--0------0----2------|-
-|--0--|--------------|--5--------|-------------------|--2------2----0------|-
-|-----|--------------|-----------|----------0---2----|--3------3-----------|-
-|-----|--------------|-----------|--2---3------------|---------------------|-
                                                                              

-|-----2--|----------------------------------|------------------------------|-
-|--3--3--|-----------------------------2----|------------------------------|-
-|--0--2--|---------------------5-------2----|------------------------------|-
-|--2--0--|--5---------5--------5-------0----|------------------------------|-
-|--3-----|--5---------5--------3------------|------------------------------|-
-|--------|--3---------2---------------------|------------------------------|-
          P.M.__________(CHORUS)_____________    VERSE - FILL - CHORUS        

-||----------0--2/3b--------|------15--------|------------------------------|-
-||-------1--------------17-|-17b-----15\----|---15-15-15-------------------|-
-||-------------------16----|----------------|--/16-16-16-14-12vv--12----12-|-
-||----2--------------------|----------------|------------------------14----|-
-||-0-----------------------|----------------|------------------------------|-
-||-------------------------|----------------|------------------------------|-
   SOLO 1                                                                     

-|-----------------------------12-----12-----12-|------0-----------------|----
-|-----------------------------12-----12--------|-3---------3------------|----
-|-12----------12v------12-14b----14b----14b----|-2----------------------|----
-|----12-12h14-------14-------------------------|-0----------------------|----
-|----------------------------------------------|----------------0---3---|----
-|----------------------------------------------|------------------------|----
                                                                              

-|-------0----0---0-|-3----2-|-------15vvv-|----------------------------------
-|-------3----3---3-|-3----3-|-------------|-15p12----12----------------------
-|----0--0--x-0-x-0-|-0----0-|-16b-b-------|-------14----14br-12----12-14b----
-|-2-----2--x-2-x-2-|-0----0-|-------------|---------------------14-----------
-|-------3--x-3-x-0-|-2----2-|-------------|----------------------------------
-|------------------|-3----3-|-------------|----------------------------------
                                                                              

--------------------|-------------------------10-----------10-------/15-----|-
------15b-------12b-|-12----------------------------------------------------|-
--12--17---15b--14--|-14--11vv---11vv---11/12----11--11/12----12\-----------|-
--------------------|-------------------------------------------------------|-
--------------------|-------------------------------------------------------|-
--------------------|-------------------------------------------------------|-
                                                                              

-|-17br----15--17br-|-------------------------|-----------------------------|-
-|------------------|--18b-vvv----------------|-----------------------------|-
-|------------------|-------------------------|-----------------------------|-
-|------------------|-------------------------|-----------------------------|-
-|------------------|-------------------------|-----------------------------|-
-|------------------|-------------------------|-----------------------------|-
              Quando il cuore senza un pezzo..   VERSE - FILL - CHORUS        

-||------------0----|----------------------------|--------------------------|-
-||---------------0-|-1p0---0--------------------|--------------------------|-
-||-------2/4-------|-----2---2p0---0------------|-------0-------0--2p0-----|-
-||-----0-----------|-------------2---2p0--------|-0--2-----0h2-------------|-
-||-0h2-------------|---------------------3v-2p0-|--------------------------|-
-||-----------------|----------------------------|--------------------------|-
   SOLO 2                                                                     

-|---------------|----------------|-----------------|-8-----------------------
-|---------------|----8----8----8-|---7----10----10-|---8---------------------
-|---0-2-----0-2-|----------------|-----------------|-----10br-8----10--------
-|-2-----0h2-----|-/9----9----9---|-9----9-----9----|------------10----10-----
-|---------------|----------------|-----------------|-------------------------
-|---------------|----------------|-----------------|-------------------------
                                                                              

---------------|-------------------------|-----------------|----------------|-
---------------|-------------------------|---------8-10/12-|-12\------------|-
--8h9----------|-------------------------|-4---------------|----------------|-
------10-8-----|-5h7-7--7-5h7-7--7-5h7-7-|---5-7/9---------|-----5-7/9-5-7-5|-
-----------10\-|-------------------------|-----------------|----------------|-
---------------|-------------------------|-----------------|----------------|-
                                                                              

-|---------------|--------------------------|----------------|--------------|-
-|-------8-10/12-|-12-8-10/12-12br-12br-vv\-|----------------|---------8----|-
-|---------------|--------------------------|----------12-14-|-14b-7h9------|-
-|-5-7/9---------|--------------------------|-5-7/9/12-------|--------------|-
-|---------------|--------------------------|----------------|--------------|-
-|---------------|--------------------------|----------------|--------------|-
                                                                              

-|--7-----------------------------|--------------|------------|--3---------||-
-|--8--10br-8---10---8------------|--------------|--3/5/8/10--|--3---------||-
-|------------9----9----2bh0------|--------2-----|------------|--0---------||-
-|--------------------------------|-----2-----2--|------------|--0---------||-
-|---------------------------3-2--|--0-----------|------------|--2---------||-
-|--------------------------------|--------------|------------|--3---------||-
                                                                              





Comments


Popular Ligabue tabs & chords
Tutti Vogliono Viaggiare In Prima Chords
Vivere A Orecchio Chords
Certe Notti Tabs
Figlio Dun Cane 2 Tabs
Libera Nos Tabs
Camera Con Vista Sul Deserto Ukulele
Lhan Detto Anche Gli Stones Ukulele
Tra Palco E Realta Ukulele
Uno Dei Tanti Ukulele
Urlando Contro Il Cielo Ukulele


Song lyrics



↑ Back to top | Tablatures and chords are parodies/interpretations of the original songs. You may use it for private study, scholarship, research or language learning purposes only
© 2014 AZChords.com Contact us | Privacy policy | DMCA | Add/correct tabs | Request tabs | Top 50 tabs