» » »

A Che Ora Tabs (ver.2)

Artists:  A B C D E F G H I J K L M N O P Q R S T U V W X Y Z # 

A Che Ora Tabs (ver.2)

Ligabue
Rating:
0/5 (0 votes)

Hard to play? Try these video lessons and learn fast.
                "A CHE ORA E' LA FINE DEL MONDO"
                             LIGABUE

                     TABULATA DA -->funkyguitar<--


Che or'è , scusa ma che or'è che non lo voglio perdere
l'ultimo spettacolo.
Fine del mondo in Mondovisione. Diretta da S. Pietro per l'occasione
La Borsa sale, i maroni no
Ferri batte il record di autogoal
Le liste del Giudizio Universale sarannoo trasmesse dai telegiornali
a reti unificate e poi sulla pagina 666.
Prima, però, su Can*le 9 ci sarà il Terzo Festival del dolore
con la finale dei casi umani meno meno meno meno umani che mai.
I Puttanieri ci diano dentro che là di là niente ciccia niente
niente ma tu giri pi— leggero
bruciando le tue scorte di preservativi
Fiorin Fiorello l'amore è bello se ci sei tu

A che ora è la fine del mondo?
A che ora è la fine del mondo?
A che ora è la fine del mondo?
Che rete è?

Destra sinistra su giù centro
fine del mondo con palle in giramento
che chi è fuori è fuori e chi è dentro è dentro
e fuori TV NON SEI NIENTE
Ultimo appello per i merdaioli: finitevi la merce che di la non
funziona.
Altro girone altro regalo: niente caramelle per i leccaculo.
Ok il girone è giusto! OK? OK!

A che ora è la fine del mondo?
A che ora è la fine del mondo?
A che ora è la fine del mondo?    Macellai da Disneyland
Che rete è? Che ora è? Che rete è? Che ora è?

A che ora è la fine del mondo?   Posso salutar mammà?
A che ora è la fine del mondo?   Posso salutar papà?
A che ora è la fine del mondo?   Posso salutar Fefè?
A Che ora è?

Forse là di là mancher… qualcosa: casa chiesa tele cosa?
Serial killer, serial politici, morti in diretta, i migliori casi
clinici
i cazzi vostri in piazza...ok?ok!

A che ora è la fine del mondo?   Posso salutar mammà?
A che ora è la fine del mondo?   Posso salutar papà?
A che ora è la fine del mondo?   Posso salutar Fefè?
Che rete è?



        INTRO                    2x STROFA1                 STROFA2
E---||---------------------------||-0-0-------0-0-------||--------------

B---||--------5-------5-3p2------||-0-2/3-2---0-2/3-2---||--------------

G---||*-4p2-----4p2---------4p2-*||-1-2-----2-1-2-----2-||*-------------

D---||*-----2-------2-----------*||-2-2-------2-2-------||*-------------

A---||---------------------------||-2-0-------2-0-------||----7-5-4-2---

E---||---------------------------||-0---------0---------||--0-----------



                  2x PRE RIT         INTRO 3 VOLTE
E-----------------||-----0-0-------|------------------------------------

B-------------/8--||-----0-2/3-2---|-----------------5-------5-8~~~-----

G-------------/7-*||-----2-2-----2-|-----------4p2-----4p2----------9---

D----------------*||-5-4-2-2-------|---------------2-------2------------

A------0-7-5-4----||-5-4-1-0-------|------------------------------------

E---3^------------||-3-2-0---------|------------------------------------



                                INTRO 2 VOLTE   RIT
E-----------------------------|-------------||--------------------------

B--------8~~~-8h10-------8~~~-|-------------||--------------------------

G---p7-------------9p7--------|-------------||*-----------4-4-4---------

D------9---------------9------|---------3-2-||*-2-2-------4-4-4-4-4-4---

A-----------------------------|---------3-2-||--2-2-------2-2-2-4-4-4---

E-----------------------------|---------5-4-||--0-0-2-4-5-------2-2-2---



           3x                        STROFA 2  INTRO   RIT
E----------||----------------------|---------|-------|---------||-------

B----------||----14----14----14~~~-|---------|-------|---------||-------

G---------*||----------------------|---------|-------|---------||*------

D---7-9-7-*||/14----14----14-------|---------|-------|---------||*-7----

A---7-9-7--||----------------------|---------|-------|---------||--7----

E---5-7-5--||----------------------|---------|-------|---------||--5----



                             3x
E----------------------------||---------------------|-------------------

B----------------------------||------15----15----15-|-------------------

G---6-7-6h7p6---------------*||---------------------|-------------------

D-------------9-7-----------*||-7/16----16----16----|-------------------

A-----------------10-7-------||-7-------------------|-------------------

E----------------------10-0--||-5-------------------|-------------------


N.B.  mi dispiace, ma non ho ancora trascritto il finale!!!
Sar… forse perchŠ in questa canzone di Ligabue suona Andrea Braido?

ENGLISH: I'm sorry but I have not transcribed the final of the song,
         because it is too fast too work out.




==                       TABLATURE EXPLANATION                        ==


----------                ----------                ----t---
----5h8--- Hammeron       ----(8)--- Ghost          ----6--- Tap
----------                ---------- Note           --------
----5p8--- Pulloff        ----------                --------

----------                ----------                -----p--
----5/8--- Slide Up       -----x---- Dead           -----7-- Pop
----------                ---------- Note           --s-----
----5\8--- Slide Down     ----------                --5----- Slap

----------                ||------|| Repeat         --------
----5~~~-- Vibrato        ||*----*||                ---5^--- Bend
----------                ||*----*||                --------
----------                ||------||                --------

----------                ----------                --------
-4:------- Time           ----------                --------
-4:------- Signature      ----------                --------
----------                ----------                --------

Rhythm:
  w = whole note            W = dotted whole
  h = half note             H = dotted half
  q = quarter note          Q = dotted quarter
  e = eighth note           E = dotted eighth
  s = sixteenth note        S = dotted sixteenth
  t = 32nd note             T = dotted 32nd
  x = 64th note             X = dotted 64th
  ^ = triplet


==            Created with a demo version of BUCKET O' TAB            ==

==              tablature creation software for Windows               ==
            
Hard to play? Try these video lessons and learn fast. | Correct




comments powered by Disqus
↑ Back to top | Tablatures and chords are parodies/interpretations of the original songs. You may use it for private study, scholarship, research or language learning purposes only