>
 >
You Belong To Me 1

You Belong To Me 1 Guitar Tabs

Lifehouse - You Belong To Me 1 chords, tabs, tablatures, lyrics

Guitar lessons | Add/correct | Request | Top 50 tabs Artists:  A B C D E F G H I J K L M N O P Q R S T U V W X Y Z 0-9

You Belong To Me 1 Guitar Tabs – Lifehouse

CD, Sheet music, Poster

Do you like You Belong To Me 1? Share with your friends now
ChordsChords v2TabsTabs v2Tabs v3Ukulele
tunning: capo 6
notes: listen to the song to get the exact timing down for the notes.  and 
it's not as complicated as it looks.  :)
this isn't the exact version of what he's playing, that's really hard to get, but just do what you want.  this is how i play it.  :)


chords used:
C  - x32010 
Em - 022000
F  - 133211 (bar)
Fm - 133111 (bar)
G? - 020010
G  - 320003
D  - xx0232
C7 - x32030

---

(intro & verse)

    C           Em        F   (Fm)     C                  
E/-----------------------------------------0-------|
B/--1-1-1-1-1-1-------------1-1-1-1-1------1-------|
G/--0-0-0-0-0-0-------0-0---2-0-2-2-0--0-0-0-0-0-0-|
D/--2-0-2-0-2-0-2-----2-2---3-3-3-3-3--2-2-2-2-2-2-|
A/--3-3-3-3-3-3-----2-2-2---3-3-3-3-3--3-3---3-3-3-|
E/----------------0-------1------------------------|


    F      Fm  C   G?  Am       D         G       C
E/---------------0---0-0-0-0-0--------------------------------|
B/---------------1---1-1-1-1-1------3---------0-0-------1-1-1-|
G/------2-2-0----0---0-2-2-2-2----2-2-2-2-----0-0-----0---0-0-|
D/------3-3-3----2---0-2-2-2-2--0---0-0-0-----0-0---2-----2-2-|
A/----3-3-3-3--3-3-2-2-0-0-0-0--------------2-2-2-3-------3-3-|
E/--1-------------------------------------3-------------------|

*(during verse 1, you play a D instead of the last C)


(verse 1)
C                      Em
  i see the pyramids around the nile

F                                C
  i watch the sunrise from the tropic isle

F             Fm             C   G?  Am              
  and just remember darlin' all the while
D        G      D*
  you belong to me


(verse 2)
C                           Em
  i see the marketplace in old algiers

F                              C
  you send me photographs and souviners

F            Fm              C   G? Am
  and just remember when a dream appears

D        G      C
  you belong to me


(chorus)
     C           C7      F        
and i'll be so alone without you

D                          G
maybe you'll be lonesome too


(verse 3)
C                       Em
  i fly the ocean in a silver plane

F                            C
  i see the jungle and it's wet with rain

F            Fm                  C   G? Am
  and just remember till you're home again

D        G      C
  you belong to me


(play the intro)

(chorus)

(verse 3)

---





Comments


Popular Lifehouse tabs & chords
Everything Bass Tabs
All In All 1 Chords
Broken 5 Chords
Fool Chords
In Your Skin Chords
All In All 1 Tabs
Hanging By A Moment 7 Tabs
Simon Tabs
Somewhere In Between 1 Tabs
Love Of A Lifetime Ukulele


Song lyrics



↑ Back to top | Tablatures and chords are parodies/interpretations of the original songs. You may use it for private study, scholarship, research or language learning purposes only
© 2014 AZChords.com Contact us | Privacy policy | DMCA | Add/correct tabs | Request tabs | Top 50 tabs