» » »

Stanley Climbfall Tabs (ver.1)

Artists:  A B C D E F G H I J K L M N O P Q R S T U V W X Y Z # 

Stanley Climbfall Tabs (ver.1)

Lifehouse
Rating:
0/5 (0 votes)

Hard to play? Try these video lessons and learn fast.
                STANLEY CLIMBFALL
                            As recorded by Lifehouse
                     (From the 2002 Album STANLEY CIMBFALL)

Words and Music by Jason Wade
Arranged by Jason Wade
Here is stanley climbfall it is in standard E flat tuning (Eb)From lower 
notes to higher notes= Eb Ab Db Gb Bb Eb 

Verse Riff
Rythem Guitar 
|---------------------------------------|
|---------------------------------------|
|-----------------------6-6-6-6-6-------|
|-----0--0--0--0--0-----0-0-0-0-0-------|
|-----0--0--0--0--0-----7-7-7-7-7-------|
|-2-/10-10-10-10-10-/2-/5-5-5-5-5-/2----|
  F# slide to D slide to F# slide to A

Lead guitar(with Delay)
|-2-/10-10-9-2-0-2-5-2----|
|-------------------------|
|-------------------------|
|-------------------------|
|-------------------------|
|-------------------------|

Bridge
|-----------------0-0-3-3----|
|---------1-1-1-1-1-1-3-3----|
|-0-0-0-0-2-2-2-2-2-2-0-0----|
|-2-2-2-2-2-2-2-2-3-3-0-0----|
|-2-2-2-2-0-0-0-0-3-3-2-2----|
|-0-0-0-0-------------3-3----|
   Em       Am     F   G
Are you falling...

|-----------------0-0-3-3------------------------------------|
|---------1-1-1-1-1-1-3-3------------------------------------|
|-0-0-0-0-2-2-2-2-2-2-0-0-1-1-1-1-1-1-1-1-1-1-1-1-1-1-1-1----|
|-2-2-2-2-2-2-2-2-3-3-0-0-2-2-2-2-2-2-2-2-2-2-2-2-2-2-2-2----|
|-2-2-2-2-0-0-0-0-3-3-2-2-2-2-2-2-2-2-2-2-2-2-2-2-2-2-2-2----|
|-0-0-0-0-------------3-3-0-0-0-0-0-0-0-0-0-0-0-0-0-0-0-0----|
    Em       Am    F    G         E 
			  In the Making...
Chorus
|-1-1-1-1-0-0-0-0-1-1-3-3-0-0-0-0-0-0-0-0----|
|-1-1-1-1-3-3-3-3-1-1-3-3-1-1-1-1-1-1-1-1----|
|-0-0-0-0-0-0-0-0-2-2-0-0-2-2-2-2-2-2-2-2----|
|-2-2-2-2-0-0-0-0-3-3-0-0-2-2-2-2-0-0-0-0----|
|-3-3-3-3-2-2-2-2-3-3-2-2-0-0-0-0-2-2-2-2----|
|-----------------1-1-3-3--------------------|
   C         G     F   G     Am     Am/B
Cause I'm at the end..


Any questions or if you have tabbed "in the beggining", "wish" or 
            
Hard to play? Try these video lessons and learn fast. | Correct




comments powered by Disqus
↑ Back to top | Tablatures and chords are parodies/interpretations of the original songs. You may use it for private study, scholarship, research or language learning purposes only