» » »

Lifehouse, Hanging By A Moment Bass tabs (ver.1)

Artists:  A B C D E F G H I J K L M N O P Q R S T U V W X Y Z # 

Hanging By A Moment Bass tabs (ver.1)

Lifehouse Tabs
Rating:
0/5 (0 votes)
Hanging By A Moment lessons Tabs too difficult? Try these video lessons and learn fast
                
Tuning: 1/2 step down then drop D = Gb Db Ab Db.

Intro:
Gb|---------------------	|-(12)-| <-- (Play a harmonic)
Db|---------------------	|------| If you have a 24 fret bass 
Ab|---------------------	|------| play the 24th fret of the Gb.
Db|-5/7/2/0-------------  x6    |------|

Verse A: 
Gb|-------------------------------------| 
Db|---------0-0-0-0-4-4-4-4-------------| 
Ab|-------------------------5-5-5-5-----| 
Db|-0-0-0-0-----------------------------| x2
THEN
Gb|------------------------------------| 
Db|---------0-0-0-0--------------------| 
Ab|------------------------------------| 
Db|-0-0-0-0----------------------------| 
After the last Db go right into the verse.
I’m not 100% sure about that first part of the verse

Verse B:
Gb|----------------------------------| 
Db|-----------------0-5-4------------| 
Ab|---0-5-7-5---0---------5----------| 
Db|-0---------0---0------------------| 

Chorus 
Gb|------------------------------------| 
Db|-5-4-2-0----------------------------| 
Ab|----------2-2-2-0-------------------| 
Db|-------------------0-0-0------------| x8

Part after the chorus: 
Gb|--------------------------------------------| 
Db|--------------------------------------------| 
Ab|-----5-5-----5-5-----5-5-----5-5------------| 
Db|-5-5-----4h5-----5-5-----4h5----------------| 

Gb|-------------------------------------| 
Db|-----7-7-------------7-7-------------| 
Ab|-5-5-----5-5-7-7-5-5-----5-5-7-7-----| 
Db|-------------------------------------| 

Gb|---------------------------------------------------| 
Db|---------------------------------------------------| 
Ab|---------------------------------------------------| 
Db|-55555555-77777777-2222222222222222----------------| x 2 

THEN
Gb|-------------------------------------------| 
Db|-------------------------------------------| 
Ab|-------------------------------------------| 
Db|-55555555-77777777-2-----------------------| Let the Eb ring out

This tab I had some trouble getting the first 
verse down, but just listen and you should hear it,
if not, then try playing something easier, like Blink182.

There is some stuff at the end I didn’t tab out, 
it’s kind of weird, figure it out your self.  
If you don’t like this tab, to bad, 
I honestly don’t care, it works for me and its 
better than any of the other ones that have been posted.
            
Submit corrections

comments powered by Disqus
↑ Back to top | Lifehouse Bass for Hanging By A Moment. Lyrics for acoustic guitar and electric guitar. Tablatures and chords are parodies/interpretations of the original songs. You may use it for private study, scholarship, research or language learning purposes only