» » »

Lifehouse, Disarray Tabs (ver.1)

Artists:  A B C D E F G H I J K L M N O P Q R S T U V W X Y Z # 

Disarray Tabs (ver.1)

Lifehouse Tabs
 Rating:
3.7/5 (6 votes)
Disarray lessons Tabs too difficult? Try these video lessons and learn fast
1
                LIFEHOUSE


Tuning: It’s ½ step down tuning.

So here is the way I play it!  Any suggestions please send me an email.
There are some chords that I don’t know the name so I called them X, Y and Z as you’ll see below. 

[ Intro and verses ] 
     G
e|--------------------------------------------------|
B|--------------------------------------------------|
G|--------------------------------------------------|
D|---2-2-2---4-4-4--2-2-2--4-4-4--2-2--4-4----------|
A|---x-x-x---x-x-x--x-x-x--x-x-x--x-x--x-x----------|
E|---3-3-3---3-3-3--3-3-3--3-3-3--3-3--3-3----------|

     A 
e|--------------------------------------------------|
B|--------------------------------------------------|
G|--------------------------------------------------|
D|---2-2-2---4-4-4--2-2-2--4-4-4--2-2--4-4----------|  
A|---0-0-0---0-0-0--0-0-0--0-0-0--0-0--0-0----------|
E|--------------------------------------------------|

     B
e|--------------------------------------------------|
B|--------------------------------------------------|
G|--------------------------------------------------|
D|---2-2-2---4-4-4--2-2-2--4-4-4--2-2--4-4----------|  
A|---2-2-2---2-2-2--2-2-2--2-2-2--2-2--2-2----------|
E|--------------------------------------------------|

      G   ( Play the full G chord before the chorus)
e |-------------------------3-3-3-3-3--3-3----------|
B |-------------------------3-3-3-3-3--3-3----------|
G |-------------------------0-0-0-0-0--0-0----------|
D |---0-0-0---0-0-0--0-0-0--0-0-0-0-0--0-0----------|
A |---2-2-2---2-2-2--2-2-2--2-2-2-2-2--2-2----------|
E |---3-3-3---3-3-3--3-3-3--3-3-3-3-3--3-3----------|

[ Chorus ]

     D     C     B       A     G
e|-----------------------------3-------------|
B|-----------------------------3-------------|
G|---7-----5-----4-------2-----0-------------|
D|---7-----5-----4-------2-----0-------------|
A|---5-----3-----2-------0-----2-------------|
E|-----------------------------3-------------|

[ Bridge ]
  
      X     Y      Z            
e|----x-----x------x------------------------|
B|----x-----x------x------------------------|
G|----7-----6------4------------------------|
D|----0-----0------2------------------------|
A|----x-----x------4------------------------|
E|----7-----5------x------------------------|


[ Interlude ]  I didn’t tab the solo.

     G
e|--------------------------------------------------|
B|--------------------------------------------------|
G|--------------------------------------------------|
D|---2-2-2---4-4-4--2-2-2--4-4-4--2-2--4-4----------|
A|---x-x-x---x-x-x--x-x-x--x-x-x--x-x--x-x----------|
E|---3-3-3---3-3-3--3-3-3--3-3-3--3-3--3-3----------|


     A 
e|--------------------------------------------------|
B|--------------------------------------------------|
G|--------------------------------------------------|
D|---2-2-2---4-4-4--2-2-2--4-4-4--2-2--4-4----------|  
A|---0-0-0---0-0-0--0-0-0--0-0-0--0-0--0-0----------|
E|--------------------------------------------------|


     B
e|--------------------------------------------------|
B|--------------------------------------------------|
G|--------------------------------------------------|
D|---2-2-2---4-4-4--2-2-2--4-4-4--2-2--4-4----------|  
A|---2-2-2---2-2-2--2-2-2--2-2-2--2-2--2-2----------|
E|--------------------------------------------------|

     G    
e|--------------------------------------------------|
B|--------------------------------------------------|
G|--------------------------------------------------|
D|---0-0-0---0-0-0--0-0-0--0-0-0--0-0--0-0----------|
A|---2-2-2---2-2-2--2-2-2--2-2-2--2-2--2-2----------|
E|---3-3-3---3-3-3--3-3-3--3-3-3--3-3--3-3----------|

     A 
e|--------------------------------------------------|
B|--------------------------------------------------|
G|--------------------------------------------------|
D|---2-2-2---4-4-4--2-2-2--4-4-4--2-2--4-4----------|  
A|---0-0-0---0-0-0--0-0-0--0-0-0--0-0--0-0----------|
E|--------------------------------------------------|

     B
e|--------------------------------------------------|
B|--------------------------------------------------|
G|--------------------------------------------------|
D|---2-2-2---4-4-4--2-2-2--4-4-4--2-2--4-4----------|  
A|---2-2-2---2-2-2--2-2-2--2-2-2--2-2--2-2----------|
E|--------------------------------------------------|

     G    ( Play the full G chord before the chorus)
e|-------------------------3--3-3-3-3--3-3----------|
B|-------------------------3--3-3-3-3--3-3----------|
G|-------------------------0--0-0-0-0--0-0----------|
D|---0-0-0---0-0-0--0-0-0--0-0-0--0-0--0-0----------|
A|---2-2-2---2-2-2--2-2-2--2-2-2--2-2--2-2----------|
E|---3-3-3---3-3-3--3-3-3--3-3-3--3-3--3-3----------|


(At the end of the song play this lightly)            
e|-----------------------|
B|----2-----0------------|
G|----2-----0------------|
D|----2-----0------------|
A|-----------------------|
E|-----------------------|
            
Submit corrections

comments powered by Disqus
↑ Back to top | Lifehouse Tabs for Disarray. Lyrics for acoustic guitar and electric guitar. 1 Tablatures and chords are parodies/interpretations of the original songs. You may use it for private study, scholarship, research or language learning purposes only