» » »

Le Vibrazioni, Vieni Da Me Bass tabs (ver.1)

Artists:  A B C D E F G H I J K L M N O P Q R S T U V W X Y Z # 

Vieni Da Me Bass tabs (ver.1)

Le Vibrazioni Tabs
 Rating:
4/5 (4 votes)
Vieni Da Me lessons Tabs too difficult? Try these video lessons and learn fast
1
                Vieni da me,Le Vibrazioni


Intro(outro)

G------------------------------------|
D-0-3------0-3-----------------------|
A------7-3------7-3------------------|
E------------------------------------|           (X2)

Verse

G------------------------------------------------------------------------|
D-0-----2-3---5-4-5-----0-1-0-1-0-5--5----5-6-----1-2-6------------------|
A---7-7-----7--------3-4---------------7---7------7-7--------7-7-7-7-7---|
E------------------------------------------------------------------------|

Chorus 1

G---------------------------------------------------------------------|
D-0-4---4-5-2-4-5------2-4-0-4---4-5-2-4-5------2-4-1-0-4-------------|
A------7-------------3-7-----------7-------------3-7------------------|
E---------------------------------------------------------------------|

Intro(outro)

Verse

Chorus 2

G--------------------------------------------------------------------------------------|
D-0-4---4-5-2-4-5------2-4-0-4---4-5-2-4-5------2-4-1-0-4-3-------5-2-0-5----0---------|
A------7-------------3-7-----------7-------------3-7-----------------3-7------------7--|
E--------------------------------------------------------------------------------------|

Instrumental

G----------------------------------------------------------------------------------------------------|
D-0-3------0-3-------0-3------0-3------55-3-5-3-2-3-5-3-5-2-3-5-4-4-4-5--4-5-4-5---4-5---------------|
A------7-3------7-3-------7-3------7-3------------------------------------------7-----------7-----7--|
E----------------------------------------------------------------------------------------------------|

Chorus 3

G-------------------------------------------------------------------------------------------------------------|
D-0-4--4-5-2-4-5----2-4-0-4--4-5-2-4-5----2-4-1-0-4-3-----5-2-0-5---0-5-2-0-5-5--0----------0-2---------------|
A-----7------------3-7---------7------------3-7---------------3-7----------7—7----------7---4-2-0-3----7-7-7--|
E-------------------------------------------------------------------------------------------------------------|

Outro(intro)

Ancora una volta buone vibrazioni a tutti
            
Submit corrections

comments powered by Disqus
↑ Back to top | Le Vibrazioni Bass for Vieni Da Me. Lyrics for acoustic guitar and electric guitar. 1 Tablatures and chords are parodies/interpretations of the original songs. You may use it for private study, scholarship, research or language learning purposes only