» » »

Vieni Da Me Bass tabs (ver.2)

Artists:  A B C D E F G H I J K L M N O P Q R S T U V W X Y Z # 

Vieni Da Me Bass tabs (ver.2)

Le Vibrazioni
Rating:
0/5 (0 votes)

Tabs too difficult? Try these video lessons and learn fast.
                
Intro
G|----------------------|
D|----------------------|
A|--5---8-12--12-0-3-5--|
E|----------------------| x4

Verse
G|------------------------------------------------------------------------|
D|------------------------------------------------------------------------|
A|--12-1212-10-8-88--12-10--1010--3-4-5-55-57-12--12-10--10-10-0-0-0-7-12-|
E|-----------------------------------------------0----------------0-------|

Chorus
G|----------------------------------|
D|----------------------------------|
A|-5-5-4-403-3-2-2-7-14-12-7-0-5----|
E|----------------------------------|

G|------------------------------------------------|
D|------------------------------------------------|
A|--5-5-4-0-4-0-3-3-0-3-2-2-2-6-7----2-0-00-4-5---|
E|--------------------------------0-0-------------|

G|----------------------|
D|----------------------|
A|--5---8-12--12-0-3-5--|
E|----------------------| x4

Verse
G|--------------------------------------------------------------------|
D|--------------------------------------------------------------------|
A|-------------------------3-4-5-55-57-12--12-11-10--10-10-0-0-0-7-12-|
E|---5--55--3-1-11--5-3-33----------------------------------0---------|

Chorus
G|----------------------------------|
D|----------------------------------|
A|-5-5-4-403-3-2-2-7-14-12-7-0-5----|
E|----------------------------------|

G|------------------------------------------------------------------------|
D|------------------------------------------------------------------------|
A|--5-5-4-0-4-0-3-3-0-3-2-2-2-----2-7-14-13-12-7-6-5-5-4-2-0-----------5--|
E|----------------------------2-0----------------------------3-3-5-5-5----|

G|----------------------|
D|----------------------|
A|--5---8-12--12-0-3-5--|
E|----------------------| x4

Instrumental
G|-------------|-----------------|--------|
D|-------------|-----------------|--------|
A|-----5-5-----|--0-00-7-0-7-----|---12---|
E|--3-3-3-3--x4|--------------x3-|--------|

Chorus
G|----------------------------------|
D|----------------------------------|
A|-5-5-4-403-3-2-2-7-14-12-7-0-5----|
E|----------------------------------|

G|------------------------------------------------------------------------|
D|------------------------------------------------------------------------|
A|--5-5-4-0-4-0-3-3-0-3-2-2-2-----2-7-14-13-12-7-6-5-5-4-2-0-----------5--|
E|----------------------------2-0----------------------------3-3-5-5-5----|

Chorus
G|----------------------------------|
D|----------------------------------|
A|-5-5-4-403-3-2-2-7-14-12-7-0-5----|
E|----------------------------------|

G|------------------------------------------------------------------------|
D|------------------------------------------------------------------------|
A|--5-5-4-0-4-0-3-3-0-3-2-2-2-----2-7-14-13-12-7-6-5-5-4-2-0-----------5--|
E|----------------------------2-0----------------------------3-3-5-5-5----|

G|----------------------|
D|----------------------|
A|-5-5-4-2-0------------|
E|-----------3-3-5-5-5--|

Ending
G|----------------------|
D|----------------------|
A|--5---8-12--12-0-3-5--|
E|----------------------| x4
            
Tabs too difficult? Try these video lessons and learn fast.




comments powered by Disqus
↑ Back to top | Tablatures and chords are parodies/interpretations of the original songs. You may use it for private study, scholarship, research or language learning purposes only