» » »

Le Vibrazioni, Dimmi Bass tabs (ver.1)

Artists:  A B C D E F G H I J K L M N O P Q R S T U V W X Y Z # 

Dimmi Bass tabs (ver.1)

Le Vibrazioni Tabs
 Rating:
4/5 (4 votes)
Dimmi lessons Tabs too difficult? Try these video lessons and learn fast
                
No bass intro e first verse
play bass (00:22)

G|---------|
D|---------|
A|--5------|
E|---------|
verse
G|-----------------------------------|
D|-----------------------------------|
A|-1-1-1---1-1-1------------1-1-1-1--|
E|-------1-------1--3-3-3-3----------|

chorus
G|---------------------------------------------------------------------|
D|---------------------------------------------------------------------|
A|----------0-0-0-0---5-5-5-5-5-5-8-8--5-3-----------1-1-1---3-3-3-----|
E|--1-1-1-1---------1-----------------------3-3-3-3-----------------3--|

G|---------------------------------------------------------------666666|
D|---------------------------------------------------------------------|
A|----------0-0-0-0---5-5-5-5-5-5-8-8--5-3-----------1-1-1-1-1-1-------|
E|--1-1-1-1---------1-----------------------3-3-3-3--------------------|

G|---------|
D|---------|
A|--5------|
E|---------|
verse
G|----------------------------------------------------------------2222222255-|
D|---------------------------------------------------------------------------|
A|-1-1-1---1-1-1------------1-1-1-1-1-1--5-5-1-1-5-5-1-1-5-5-1-1-------------|
E|-------1-------1--3-3-3-3--------------------------------------------------|

Chorus 
G|---------------------------------------------------------------------|
D|---------------------------------------------------------------------|
A|----------0-0-0-0---5-5-5-5-5-5-8-8--5-3-----------1-1-1---3-3-3-----|
E|--1-1-1-1---------1-----------------------3-3-3-3-----------------3--|

G|---------------------------------------------------------------666666|
D|---------------------------------------------------------------------|
A|----------0-0-0-0---5-5-5-5-5-5-8-8--5-3-----------1-1-1-1-1-1-------|
E|--1-1-1-1---------1-----------------------3-3-3-3--------------------|

Solo
G|----------------|------------|-----------------|------------|
D|----------------|------------|-----------------|------------|
A|--5555555503--x3|-5555555530-|-555555555503 x3-|-555555555--|
E|----------------|------------|-----------------|------------|

Chorus 
G|---------------------------------------------------------------------|
D|---------------------------------------------------------------------|
A|----------0-0-0-0---5-5-5-5-5-5-8-8--5-3-----------1-1-1---3-3-3-----|
E|--1-1-1-1---------1-----------------------3-3-3-3-----------------3--|

G|---------------------------------------------------------------666666|
D|---------------------------------------------------------------------|
A|----------0-0-0-0---5-5-5-5-5-5-8-8--5-3-----------1-1-1-1-1-1-------|
E|--1-1-1-1---------1-----------------------3-3-3-3--------------------|

Outro
G|---------|
D|---------|
A|--5------|
E|---------|
            
Submit corrections

comments powered by Disqus
↑ Back to top | Le Vibrazioni Bass for Dimmi. Lyrics for acoustic guitar and electric guitar. Tablatures and chords are parodies/interpretations of the original songs. You may use it for private study, scholarship, research or language learning purposes only