» » »

Le Vibrazioni, Dimmi Bass tabs (ver.2)

Artists:  A B C D E F G H I J K L M N O P Q R S T U V W X Y Z # 

Dimmi Bass tabs (ver.2)

Le Vibrazioni Tabs
Rating:
0/5 (0 votes)
Dimmi lessons Tabs too difficult? Try these video lessons and learn fast
                
Intro
G|-------------------------------------------------------------------|
D|---------------------------8---------------------------------------|
A|------7--7-10-10-10-12-10----8-7-0-0--4-5-5-5-7-8-8-8-0----7--7----|
E|--8-8---8----------------------------7------------------8-8--8--3--|

Verse
G|---------------------------------|
D|---------------------------------|
A|---7-10---------4-5-----0-3-5----|
E|--8-----5-6-6-5-----0-1-------3--|

G|----------------------------------------------------|
D|----------------------------------------------------|
A|----7-10-10----8-7-0-0---4-5-5-5-7-8-8-0----7--7----|
E|-8-8--------6-6--------7-----------------8-8--8--3--|

Chorus
G|-------------------------------------------------------|
D|-------------------------------------------------------|
A|-3--3-2-2-1-1----0-0-2-4-5-505-7-8-8-8-0----7--7-------|
E|---3---3------1-0------------------------8-8--8--3-----| x3 

Ending 
G|------------------------------------|
D|------------------------------------|
A|---7-10---------2-4-55-7-8-0-3-5----|
E|--8-----5-6-6-5------------------3--|
            

comments powered by Disqus
↑ Back to top | Le Vibrazioni Bass for Dimmi. Lyrics for acoustic guitar and electric guitar. Tablatures and chords are parodies/interpretations of the original songs. You may use it for private study, scholarship, research or language learning purposes only