» » »

Leona Lewis, Bleeding Love Tabs (ver.1)

Artists:  A B C D E F G H I J K L M N O P Q R S T U V W X Y Z # 

Bleeding Love Tabs (ver.1)

Leona Lewis Tabs
 Rating:
4.8/5 (26 votes)
Bleeding Love lessons Tabs too difficult? Try these video lessons and learn fast
1
                Leona Lewis – Bleeding Love


video of me playing/singing it:

Tuning: C  G  C  G  C  C

 x = mute
 / = slide
< > = harmonic

Verse 1: (palm mute throughout)
-----------------------------------------------------------|
-----------------------------------------------------------|
-x-x---------------x-x---------------x-x---------------x-x-|
-7-7---------------4-4---------------x-x---------------2-2-|
-5-5---------------2-2---------------5-5---------------0-0-|
-x-x---------------x-x---------------5-5---------------x-x-|

-------------------------------------------|
-------------------------------------------|
-x-x----x---x-x----x---x-x----x---x-x----x-|
-7-7----7---7-7----7---4-4----4---4-4----4-|
-5-5----5---5-5----5---2-2----2---2-2----2-|
-x-x----x---x-x----x---x-x----x---x-x----x-|

-------------------------------------------|
-------------------------------------------|
-x-x----x---x-x----x---x-x----x---x-x----x-|
-x-x----x---x-x----x---2-2----2---2-2----2-|
-5-5----5---5-5----5---0-0----0---0-0----0-|
-5-5----5---5-5----5---x-x----x---x-x----x-|

Chorus 1:
-------------------------------|
-------------------------------|
-x----x----x-------------------|
-7--\-4--/-12----7--9--11---12-| (palm mute)
-5--\-2--/-10----0--0--0----0--|
-------------------------------|

------------------------|
-0----0----0----2-------|
-0----0----0----0---<5>-| (slight palm mute)
-7--\-4----x----2-/-<5>-|
-5--\-2----5----0-------|
-x----x----5----x-------|

Verse 2:
----------------------------------|
---0----0--0----0--0----0--0----0-|
--0----0--0----0--0----0--0----0--|
----------------------4-------4---|
------0-------0--2-------2--------|
-0-------0------------------------|

----------------------------------|
---0----0--0----0--2----2--2----2-|
--0----0--0----0--0----0--0----0--|
------0-------0-------2-------2---|
-----------------0-------0--------|
-5-------5------------------------|

-----------------------------------|
---0---0---0---0---0---0---0----0--|
--0-0-0-0-0-0-0-0-0-0-0-0-0-0--0-0-|
---------------------4--------4----|
-----0-------0---2-------2---------|
-0-------0-------------------------|

-----------------------------------|
---0---0---0---0---2---2---2----2--|
--0-0-0-0-0-0-0-0-0-0-0-0-0-0--0-0-|
-----0-------0-------2--------2----|
-----------------0-------0---------|
-5-------5-------------------------|

Chorus 2:
-0----0----0-----0--0--0----0--|
-0----0----0-----0--0--0----0--|
-0----0----0-----0--0--0----0--|
-7--\-4--/-12----7--9--11---12-| (full strumming)
-5--\-2--/-10----0--0--0----0--|
-0-----------------------------|

-0----0----0----0-|
-0----0----0----2-|
-0----0----0----0-|
-4----4----x----2-|
-5----2----5----0-|
-0---------5------|

Outro:
-0----0----0----0--------0--------0----0-|
-0----0----0----0--------0--------0----0-|
-0----0----0----0------0--------0------0-|
-4----x----4----2----4-----------------0-|
-2----5----5----4----2--------5--------0-|
------5----0------------------5--------0-|
            
Submit corrections

comments powered by Disqus
↑ Back to top | Leona Lewis Tabs for Bleeding Love. Lyrics for acoustic guitar and electric guitar. 1 Tablatures and chords are parodies/interpretations of the original songs. You may use it for private study, scholarship, research or language learning purposes only