» » »

I Got You Tabs (ver.1)

Artists:  A B C D E F G H I J K L M N O P Q R S T U V W X Y Z # 

I Got You Tabs (ver.1)

Leona Lewis
Rating:
0/5 (0 votes)

Tabs too difficult? Try these video lessons and learn fast.
                Leona Lewis - I Got You

[Used Chords]

  G   Dsus4   Em7   C9
e-3-----3-----3-----3
B-3-----3-----3-----3
G-0-----2-----0-----0
D-0-----0-----2-----2
A-2-----0-----2-----3
E-3-----2-----0-----0 


[Intro]
    G                            Dsus4                       Em7
e-|-----7------7-----7------7--|-----5-----5-----5-----5--|-----7-----7----7------7--|
B-|-----8------8-----8------8--|-----8-----8-----8-----8--|-----8-----8----8------8--|
G-|----------------------------|--------------------------|--------------------------|
D-|--9------------9------------|--9-----7-----9-----5-----|--9----------9------------|
A-|--------10-----------10-----|--------------------------|-------10----------10-----|
E-|----------------------------|--------------------------|--------------------------|

 C9
------8-----8-----8-----8--|
------8-----8-----8-----8--|
---------------------------|
--10----------9------------|
--------10----------10-----|
---------------------------|

[Verse]  [  G Dsus4 Em7 C9  ]
[Chorus] [  G Dsus4 Em7 C9  ]
[Bridge] [  C9 Dsus4 Em7 G  |   C D   |   Em7 C9 G Dsus4    |   Em7 C9 G Dsus4 ] 



[Lyrics]

A place to crash
I got you
No need to ask
I got you
Just get on the phone
I got you
Come and pick you up if I have to
What?s weird about it
Is we?re right at the end
And mad about it
Just figured it out in my head
I?m proud to say
I got you

Go ahead and say goodbye
I?ll be alright
Go ahead and make me cry
I?ll be alright
And when you need a place to run to
For better for worse
I got you
I got you

Ain?t falling a part, or bitter
Let?s be bigger than that and remember
The cooling outdoor when you?re all alone
We?ll go on surviving
No drama, no need for a show
Just wanna say
I got you

Go ahead and say goodbye
I?ll be alright
Go ahead and make me cry
I?ll be alright
And when you need a place to run to
For better for worse

I got you
Go ahead and say goodbye (go ahead)
I?ll be alright (say goodbye)
Go ahead and make me cry
I?ll be alright
And when you need a place to run to
For better for worse
I got you

?Cause this is love and life
And nothing we can both control
And if it don?t feel right
You?re not losing me by letting me know

Go ahead and say goodbye (say goodbye)
I?ll be alright
Go ahead and make me cry
I?ll be alright
And when you need a place to run to
For better for worse
I got you
Go ahead and say goodbye (go ahead)
I?ll be alright (say goodbye)
Go ahead and make me cry
I?ll be alright
And when you need a place to run to
For better for worse
I got you

A place to crash
I got you
No need to ask
I got you
            
Tabs too difficult? Try these video lessons and learn fast.




comments powered by Disqus
↑ Back to top | Tablatures and chords are parodies/interpretations of the original songs. You may use it for private study, scholarship, research or language learning purposes only