» » »

Bleeding Love Bass tabs (ver.1)

Artists:  A B C D E F G H I J K L M N O P Q R S T U V W X Y Z # 

Bleeding Love Bass tabs (ver.1)

Leona Lewis
Rating:
5/5 (1 vote)
Tabs too difficult? Try these video lessons and learn fast.
                Hey guys Here it is! :)

Verses:
G|----------------|----------------|----------------|----------------|
D|3333333333333333|0000000000000000|----------------|----------------|
A|----------------|----------------|1111111111111111|333333333333-15-15|
E|----------------|----------------|----------------|----------------|

G|----------------|----------------|----------------|----------------|
D|3333333333333333|0000000000000000|----------------|----------------|
A|----------------|----------------|1111111111111111|333333333333-15-15|
E|----------------|----------------|----------------|----------------|

Chorus:
G|----------------|----------------|----------------|----------------|
D|15/3333333333333|12/0000000000000|----------------|----------------|
A|----------------|----------------|13/1111111111111|15/333333333-15-15|
E|----------------|----------------|----------------|----------------|


Bridge:
G|----------------|----------------|----------------|----------------|
D|15--15--15--15--|12--12--12--12--|----------------|----------------|
A|----------------|----------------|13--13--13--13--|15--15--15--15--|
E|----------------|----------------|----------------|----------------|

Outro:
G|----------------|----------------|
D|3---------------|3-----2---------|
A|--------1-------|----------------|
E|----------------|----------------|
            
Tabs too difficult? Try these video lessons and learn fast.


comments powered by Disqus
↑ Back to top | Tablatures and chords are parodies/interpretations of the original songs. You may use it for private study, scholarship, research or language learning purposes only