» » »

We Goin Grove Tabs (ver.1)

Artists:  A B C D E F G H I J K L M N O P Q R S T U V W X Y Z # 

We Goin Grove Tabs (ver.1)

Led Zeppelin
Rating:
0/5 (0 votes)

Hard to play? Try these video lessons and learn fast.
                we're gonna grove.txt

[This was created with TabIt for Windows version 1.59]

			Play this twice	(rif1)	play this like 6 times(riff2)
E  :----------------||*---------------------*1|-------------------------*5|
B  :----------------||*8-8-8-8-8x8-8x-------*||8-8-8-8x8-8-8x8-8x8-8-8-8*||
G  :----------------|| 7-7-7-7-7x7-7x------- ||7-7-7-7x7-7-7x7-7x7-7-7-7 ||
D  :----------------|| 6-6-6-6-6x6-6x------- ||6-6-6-6x6-6-6x6-6x6-6-6-6 ||
A  :----------------|| 7-7-7-7-7x7-7x------- ||7-7-7-7x7-7-7x7-7x7-7-7-7 ||
E  :----------------|| --------------------- ||------------------------- ||
	then this(3)	then this(2)		then this (4)
E  :------------------|-------------------------|-------------------|
B  :------------------|8-8-8-8x8-8-8x8-8x8-8-8-8|-------------------|
G  :------------------|7-7-7-7x7-7-7x7-7x7-7-7-7|-------------------|
D  :9--11--12---------|6-6-6-6x6-6-6x6-6x6-6-6-6|14--12-------------|
A  :7---9--10---------|7-7-7-7x7-7-7x7-7x7-7-7-7|12--10--12---------|
E  :------------------|-------------------------|--------10---------|
	(chorus)
E  :|*----------------*3|----------------|----------------|
B  :|*----------------*||xxxxxx--xxxxx-x-|----xxxxx-------|
G  :| ---------------- ||x-------x---x-x-|----x---x-------|
D  :| 7--5--7--xx-x--- ||xxxxxx--x---x-x-|----x---x-------|
A  :| 7--5--7-xx-xx-x- ||-----x--x---x-x-|----x---x-------|
E  :| 5--3--5-x-x--x-x ||xxxxxx--xxxxx-xx|xxx-xxxxx-------|
    we're gonna grove		(solo only in live version)
E  :----------------|------------x-x-|x-x-x-----------|
B  :xxxxx-xxx-xxxxx-|xxxxx-x---x-x-x-|x-x-x-----------|
G  :x---x--x----x---|x-----x---x-x-x-|x-x-x-----------|
D  :xxxx---x----x---|x-----xxxxx-x-x-|x-x-x-----------|
A  :x---x--x----x---|x-----x---x-----|----------------|
E  :xxxxx-xxx---x---|xxxxx-x---x-x-x-|x-x-x-----------|
after solo is this (riff 5)
E  :--------------0---|
B  :--------------0---|
G  :---------14-------|
D  :14-------14-------|
A  :14-------12-------|
E  :12----------------|

order:
riff 1 x2
Riff 2 x6 (I THINK)
Riff 3 x1 \
Riff 2 x1  \__ x2 or however many it is for words 
Riff 4 x1__/
Chrous x4
Whole thing times 2 but instead of 6 riff 2s it's only 1 or 2 (listen to be sure
            
Hard to play? Try these video lessons and learn fast. | Correct




comments powered by Disqus
↑ Back to top | Tablatures and chords are parodies/interpretations of the original songs. You may use it for private study, scholarship, research or language learning purposes only