>
 >
The Girl I Love She Got Long Black Wavy Hair 3

The Girl I Love She Got Long Black Wavy Hair 3 Guitar Tabs

Led Zeppelin - The Girl I Love She Got Long Black Wavy Hair 3 chords, tabs, tablatures, lyrics

Guitar lessons | Add/correct | Request | Top 50 tabs Artists:  A B C D E F G H I J K L M N O P Q R S T U V W X Y Z 0-9

The Girl I Love She Got Long Black Wavy Hair 3 Guitar Tabs – Led Zeppelin

CD, Sheet music, Poster

Do you like The Girl I Love She Got Long Black Wavy Hair 3? Share with your friends now
Bass TabsTabsTabs v2Tabs v3Tabs v4Tabs v5
The Girl I Love She Got Long Black Wavy Hair                   


                                                               
Jimmy Page



                                                        
E||---------------------------|------------------------|
B||---------------------------|------------------------|
G||---------------------------|------------------------|
D||--------7p5---5------5h7/--|------------------------|
A||--0--0------7------7-------|------------------------|
E||---------------------------|--5--5-3-0-3h5----------|


                                                     
---------------------------|------------------------|
---------------------------|------------------------|
---------------------------|------------------------|
--------7p5---5------5h7/--|------------------------|
--0--0------7------7-------|------------------------|
---------------------------|--5--5-3-0-3h5----------|


                                                          
---------------------------|-----------------------------|
---------------------------|-----------------------------|
--------7p5---5------5h7/--|--------7-5---5~--12/-1/-12--|
--0--0------7------7-------|--0---x-----7----------------|
---------------------------|-----------------------------|
---------------------------|-----------------------------|


                                                                              
---------------------------|------------------------|------------------------|
---------------------------|------------------------|------------------------|
---------------------------|------------------------|------------------------|
--------7p5---5------5h7/--|--------7p5---5---------|--9-----9-9-9-9------9--|
--0--0------7------7-------|--0--0------7-----------|--7-----7-7-7-7------7--|
---------------------------|------------------------|--0-----0-0-0-0------0--|


                                                                           
---------------------|---------------------------|------------------------|
---------------------|---------------------------|------------------------|
---------------------|---------------------------|------------------------|
--7------5-----------|--------7p5---5------5h7/--|------------------------|
--5------3------5----|--0--0------7------7-------|------------------------|
----------------3----|---------------------------|--5--5-3-0-3h5----------|


                                                     
---------------------------|------------------------|
---------------------------|------------------------|
---------------------------|------------------------|
--------7p5---5------5h7/--|------------------------|
--0--0------7------7-------|------------------------|
---------------------------|--5--5-3-0-3h5----------|


                                                     
---------------------------|------------------------|
---------------------------|------------------------|
---------------------------|------------------------|
--------7p5---5------5h7---|------------------------|
--0--0------7------7-------|------------------------|
---------------------------|--5--5-3-0-3h5----------|


                                                        
---------------------------|---------------------------|
---------------------------|---------------------------|
--------7p5---5~-----5-7/--|---------------------------|
--0--0------7------7-------|---------------------------|
---------------------------|--5--5--3-0-3-5--2/-17-----|
---------------------------|---------------------------|


                                                                             
---------------------------|-------------------------|----------------------|
---------------------------|-------------------------|----------------------|
---------------------------|-------------------------|----------------------|
--------7p5---5------5h7/--|----------------------9--|--9------------9-9--7-|
--0--0------7------7-------|----------------------7--|--7------------7-7--5-|
---------------------------|--5--5-3-0-3h5--------0--|--0------------0-0----|


                                                                              
------------------------|---------------------------|------------------------|
------------------------|---------------------------|------------------------|
------------------------|---------------------------|------------------------|
--7----x-x-x-5----------|--------7p5---5------5h7/--|------------------------|
--5----x-x-x-3-----5----|--0--0------7------7-------|------------------------|
-------------------3----|---------------------------|--5--5-3-0-3h5----------|


                                                     
---------------------------|------------------------|
---------------------------|------------------------|
---------------------------|------------------------|
--------7p5---5------5h7/--|------------------------|
--0--0------7------7-------|------------------------|
---------------------------|--5--5-3-0-3h5----------|


                                                     
---------------------------|------------------------|
---------------------------|------------------------|
---------------------------|------------------------|
--------7p5---5------5h7/--|------------------------|
--0--0------7------7-------|------------------------|
---------------------------|--5--5-3-0-3h5----------|


                                                     
---------------------------|------------------------|
---------------------------|------------------------|
--------7p5---5~-----5h7/--|------------------------|
--0--0------7------7-------|------------------------|
---------------------------|--5--5-3-0-3h5----------|
---------------------------|------------------------|


                                                                             
---------------------------|-------------------------|----------------------|
---------------------------|-------------------------|----------------------|
---------------------------|-------------------------|----------------------|
--------7p5---5------5h7/--|----------------------9--|--9------------9-9--7-|
--0--0------7------7-------|----------------------7--|--7------------7-7--5-|
---------------------------|--5--5-3-0-3h5--------0--|--0------------0-0----|


                                                     
------------------------|---------------------------|
------------------------|---------------------------|
------------------------|---------------------------|
--7----x-x-x-5----------|--------7p5---5~-----5h7/--|
--5----x-x-x-3-----5----|--0--0------7------7-------|
-------------------3----|---------------------------|


                                                                 
-------------------5-----5---|--5-5---5-5---------------------5-|
-------------------5---5-----|--5-5---5-5-------------------5---|
----------------8b---8b----8b|------8b----8r-5------5---5b7-----|
-----------------------------|-----------------7-7~---7---------|
-----------------------------|----------------------------------|
--5--5--5-3-x----------------|----------------------------------|


                                       
--------------------------------------|
--8-8b-----5---5----------------------|
---------8---8---8-7-5-----7---5-6----|
-----------------------7-7---7-----5~-|
--------------------------------------|
--------------------------------------|


                                          
-----------------------------------------|
--------10-12--12b-12-10----12-10--12-10-|
-----11------------------11--------------|
-----------------------------------------|
-----------------------------------------|
-----------------------------------------|


                                                                          
--12b-x------------------------------------|---------------------5-7b--7-|
------x--10~----10-12b12-10----12----10-12-|--10-12----------5-7---------|
------0------11-------------11----11-------|--------11~------------------|
-------------------------------------------|-----------------------------|
-------------------------------------------|-----------------------------|
-------------------------------------------|-----------------------------|


                                                                        
--5---7-5-------8b-5-------------|-------------------------------------|
----7-----7~--5------5-7r--5-----|---------------------------------5-5-|
-----------------------------5---|--7---5-6----------------2---2-6-----|
-------------------------------7-|----7-----5-------0----3---3---------|
---------------------------------|----------------0---4----------------|
---------------------------------|-------------------------------------|


                                          
--5------8-9-10p9-10-10b-10-8----10----8-|
----10------------------------10----10---|
---------------------10b-0---------------|
-----------------------------------------|
-----------------------------------------|
-----------------------------------------|


                                         
--10-0----------------------------------|
--10-----------10-12b10-12----------10--|
-----9-9~---11-------------11-11-11-----|
----------------------------------------|
----------------------------------------|
----------------------------------------|


                                                  
--12b-12--11--10----10---------------------------|
-----------------13----13--10------12b-12-10-----|
-------------------------------11------------11--|
-------------------------------------------------|
-------------------------------------------------|
-------------------------------------------------|


                                                  
-------------------------5-----------------------|
--12p10----12-10-------5---8-5h8-5---5-----------|
--------11-----------7b------------8---8-8p5-7p5-|
-------------------------------------------------|
-------------------------------------------------|
-------------------------------------------------|


                                                                          
----------------------------------------------|--------------------------|
----------------------------------------------|--------------------------|
----------------------------------------------|--------------------------|
--5h7-7p5-------5h7p5---------------------5---|--7--7--7----5~-----5-7/--|
----------6-7-7-------0-7-3h5-3---3-3-5/7---7-|----------7-------7-------|
--------------------------------5-------------|--------------------------|


                                                                               
------------------------|----------------------------|------------------------|
------------------------|----------------------------|------------------------|
------------------------|----------------------------|------------------------|
------------------------|--------7p5---5-5-----5h7/--|------------------------|
------------------------|--0--0------7-------7-------|------------------------|
--5--5--3-0-3-5---------|----------------------------|--5--5-3-0-3h5----------|


                                                     
---------------------------|------------------------|
---------------------------|------------------------|
--------7p5---5------5h7/--|------------------------|
--0--0------7------7-------|------------------------|
---------------------------|--5--5-3-0-3h5----------|
---------------------------|------------------------|


                                                                              
---------------------------|------------------------|------------------------|
---------------------------|------------------------|------------------------|
---------------------------|------------------------|-----1----2----4--2--1--|
--------7p5---5------5h7/--|------------------------|-----2----0-------------|
--0--0------7------7-------|------------------------|-----2----4----5--4--2--|
---------------------------|--5--5-3-0-3h5----------|--0---------------------|


                                                        
-------------2-------------|---------------------------|
----------------1--1-1-----|---------------------------|
--2-----0h2-------------2--|---------------------------|
--0-----0------------------|--------7p5---5------5h7/--|
-----0---------------------|--0--0------7------7-------|
---------------------------|---------------------------|


                                                           
------------------------|--------5-----5-----5------------|
------------------------|-----5------5-----5--------------|
------------------------|--7b------7b----7b----7b-5---7---|
------------------------|---------------------------7---7-|
------------------------|---------------------------------|
--5--5-3-0-3h5----------|---------------------------------|


                                     
------------------------------------|
--------------11--14-13-14-14-13-14-|
--5-6-5~------12--12-11-12-12-11-12-|
--------------14--14-13-14-14-13-14-|
------------------------------------|
------------------------------------|


                                                           
----------------------------------------------------------|
--14-14-13-14-14-14-13-14-14-14-13-14-14-14-14-14-14---13-|
--12-12-11-12-12-12-11-12-12-12-11-12-12-12-12-12-12-0-12-|
--14-14-13-14-14-14-13-14-14-14-13-14-14-14-14-14-14------|
----------------------------------------------------------|
----------------------------------------------------------|


                                               
--14-12----14-12----14-12----14-12--------12b-|
-----12-13-------13-------13-------13-13b-13b-|
----------------------------------------------|
----------------------------------------------|
----------------------------------------------|
----------------------------------------------|


                                                                          
--12b-----------------------------|-----------------15b15b15b15~15~15~15~|
--13b-------------15b15-13-15-15b-|--15b-15~-----15b15-15-15-15~15~15~15~|
------14/------14-----------------|--------------------------------------|
----------------------------------|--------------------------------------|
----------------------------------|--------------------------------------|
----------------------------------|--------------------------------------|


                                                                            
--15~15~15~15~15~15~15~15~15-15-15-15/----|--------------------------------|
--15~15~15~15~15~15~15~15~15-15-15-15/----|--------------------------------|
--------------------------15b15-15-15/----|--------------------------------|
------------------------------------------|------------5-5-7-5---5---5---5-|
------------------------------------------|---------7----------7---7---7---|
------------------------------------------|--0-----------------------------|


                                                
----------------------------------------------||
--------------------------5---5-8p5---5-------||
----------------5---5-7-7---7-------7---7-5h7-||
--------7-7-5-7---7---------------------------||
--7-7-7---------------------------------------||
----------------------------------------------||





Comments


Popular Led Zeppelin tabs & chords
Custard Pie 2 Bass Tabs
Dancing Days Chords
Communication Breakdown Drum Tabs
Nobodys Fault But Mine Drum Tabs
Hats Off To Roy Harper 1 Tabs
Misty Mountain Hop 1 Tabs
Out On The Tiles 1 Tabs
Royal Orleans 1 Tabs
The Girl I Love Intro Tabs
Trampled Underfoot 1 Tabs


Song lyrics



↑ Back to top | Tablatures and chords are parodies/interpretations of the original songs. You may use it for private study, scholarship, research or language learning purposes only
© 2014 AZChords.com Contact us | Privacy policy | DMCA | Add/correct tabs | Request tabs | Top 50 tabs