» » »

Led Zeppelin, Something Else Tabs (ver.1)

Artists:  A B C D E F G H I J K L M N O P Q R S T U V W X Y Z # 

Something Else Tabs (ver.1)

Led Zeppelin Tabs
Rating:
0/5 (0 votes)
Something Else lessons Tabs too difficult? Try these video lessons and learn fast
                Led Zeppelin-Something Else (Eddie Cochran cover)

E-----------------------------------------------------------------------------|
B-----------------------------------------------------------------------------|
G--------/9-9-9-9-/9-9-9-9-/9-9-9-9--------/9-9-9-9-/9-9-9-9------------------|
D--------/9-9-9-9-/9-9-9-9-/9-9-9-9--------/9-9-9-9-/9-9-9-9--9-9-9-9-9-9-9-9-|
A----4-6-/7-7-7-7-/7-7-7-7-/7-7-7-7----4-6-/7-7-7-7-/7-7-7-7--9-9-9-9-9-9-9-9-|
E--7---------------------------------7------------------------7-7-7-7-7-7-7-7-|

E---------------------------------------------------------------------------------------|
B---------------------------------------------------------------------------------------|
G-9-9---9-9--------/9-9-9-9-/9-9-9-9-/9-9-9-9--------/9-9-9-9-/9-9-9-9-/9-9-9-9-9-9-9-9-|
D-9-9---9-9--------/9-9-9-9-/9-9-9-9-/9-9-9-9--------/9-9-9-9-/9-9-9-9-/9-9-9-9-9-9-9-9-|
A-7-7---7-7----4-6-/7-7-7-7-/7-7-7-7-/7-7-7-7----4-6-/7-7-7-7-/7-7-7-7-/7-7-7-7-7-7-7-7-|
E------------7---------------------------------7----------------------------------------|

E-----------------------------------------------------------------------|
B-----------------------------------------------------------------------|
G-----------------------------------------------------------------------|
D-/9-9-9-9-/9-9-9-9-/9-9-9-9-9-9-9-9-/7-7-7-7-/7-7-7-7-/7-7-7-7-7-7-7-7-|
A-/9-9-9-9-/9-9-9-9-/9-9-9-9-9-9-9-9-/7-7-7-7-/7-7-7-7-/7-7-7-7-7-7-7-7-|
E-/7-7-7-7-/7-7-7-7-/7-7-7-7-7-7-7-7-/5-5-5-5-/5-5-5-5-/5-5-5-5-5-5-5-5-|

E---------------------------------------------|
B---------------------------------------------|
G--------------------------------------9---9--|
D-/9-9-9-9-/9-9-9-9-/7-7-7-7-/7-7-7-7--9---9--|
A-/9-9-9-9-/9-9-9-9-/7-7-7-7-/7-7-7-7--7---7--|
E-/7-7-7-7-/7-7-7-7-/5-5-5-5-/5-5-5-5---------|

Repeat that whole thing 4 times and then go to the outro:

E-----------------------------------|
B-----------------------------------|
G-------/9-9-9-9-/9-9-9-9-/9-9-9-9--|
D-------/9-9-9-9-/9-9-9-9-/9-9-9-9--|  Repeat a few times till it fades.
A---4-6-/7-7-7-7-/7-7-7-7-/7-7-7-7--|
E-7---------------------------------|

That was the whole song, Enjoy!
            
Submit corrections

comments powered by Disqus
↑ Back to top | Led Zeppelin Tabs for Something Else. Lyrics for acoustic guitar and electric guitar. Tablatures and chords are parodies/interpretations of the original songs. You may use it for private study, scholarship, research or language learning purposes only