» » »

Royal Orleans Bass tabs (ver.1)

Artists:  A B C D E F G H I J K L M N O P Q R S T U V W X Y Z # 

Royal Orleans Bass tabs (ver.1)

Led Zeppelin
Rating:
0/5 (0 votes)

Hard to play? Try these video lessons and learn fast.
                Royal Orleans
Led Zeppelin

G---------0-------0-----0---------------0-------0-----0-----------|
D---2-4-2---2-4-2---2-4---4-2-----2-4-2---2-4-2---2-4---4-2-------|
A-----------------------------4-0---------------------------4-0---|
E-----------------------------------------------------------------|

VERSES

G-------------------------------------------------------------|
D---4p2-2-2-2-2-0-4p2-2-2-2-2-0-4p2-2-2-2-2-0-4p2-2-2-2-2-0---|
A-------------------------------------------------------------|
E-------------------------------------------------------------|

G-------------------------------------------------------------|
D---4p2-2-2-2-2-0-4p2-2-2-2-2-0-4p2-2-2-2-2-0-4p2-2-2-2-2-0---|
A-------------------------------------------------------------|
E-------------------------------------------------------------|

Led Zeppelin Is #1 Band
            
Hard to play? Try these video lessons and learn fast. | Correct




comments powered by Disqus
↑ Back to top | Tablatures and chords are parodies/interpretations of the original songs. You may use it for private study, scholarship, research or language learning purposes only