» » »

Ramblin Man Tabs (ver.1)

Artists:  A B C D E F G H I J K L M N O P Q R S T U V W X Y Z # 

Ramblin Man Tabs (ver.1)

Led Zeppelin
Rating:
0/5 (0 votes)

Tabs too difficult? Try these video lessons and learn fast.
                this is a pretty short and siple song, so doant stress to learn it
pleez rate this or comment it
standard tuning

----------------------------
----------------------------
-9-9-99---7-7-77--7---------
-9-9-99---7-7-77--5---------
-7-7-77---7-7-77--7---------
----------------------------
that has a slow acous. melody to it.
do it twice then this after every time you do it

----------------------------
--------5-5-55--------------
-7-7-77-3-3-33-5------------
-5-5-55-5-5-55-3------------ 
-7-7-77--------5------------
----------------------------
do all that twice the this

-55---5---7---3-----5------
-5--5---5---7---3---5------
-6-6---6---8---4----6------
-7---7---7---9---5--7------
---------------------------
---------------------------

that should be right so if it is not then comment me plz.  rate this no matter what
            
Tabs too difficult? Try these video lessons and learn fast.


comments powered by Disqus
↑ Back to top | Tablatures and chords are parodies/interpretations of the original songs. You may use it for private study, scholarship, research or language learning purposes only