>
 >
Hots On For Nowhere

Hots On For Nowhere Guitar Tabs

Led Zeppelin - Hots On For Nowhere chords, tabs, tablatures, lyrics

Guitar lessons | Add/correct | Request | Top 50 tabs Artists:  A B C D E F G H I J K L M N O P Q R S T U V W X Y Z 0-9

Hots On For Nowhere Guitar Tabs – Led Zeppelin

CD, Sheet music, Poster

Do you like Hots On For Nowhere? Share with your friends now
Bass TabsDrum TabsTabs
HOTS ON FOR NOWHERE
Led Zeppelin
"Presence"

(Jimmy Page & Robert Plant)


  Intro(Electric 1)
e|----------------------------------|----------------------------------|
B|----------------------------------|----------------------------------|
G|----------------------------------|---0------------------------------|
D|--------------------------------4-|-------------2------------------4-|
A|----------------------------------|-5---4-4-0-2---2------------------|
E|----------------------------------|---------------0------------------|

  Main Riff (Electric 1)
e|----------------------------------|----------------------------------|
B|----------------------------------|----------------------------------|
G|----------------------------------|---------------7---9-------9-s7---|
D|-4-4---------2------------------4-|-4-4---------2-7---9-------9-s7-4-|
A|-5-5-4-4-0-2---2------------------|-5-5-4-4-0-2-2-5---7-10-11--------|
E|---------------0------------------|----------------------------------|

  Break Riff (Electric 1)
e|----------------------------------|----------------------------------|
B|----------------------------------|----------------------------------|
G|----------------------------------|---------------7---9--------------|
D|-4-4---------2------------------4-|-4-4---------2-7---9--------2-4---|
A|-5-5-4-4-0-2---2------------------|-5-5-4-4-0-2-2-5---7----3-4-----0-|
E|---------------0------------------|----------------------------------|

e|----------------------------------|----------------------------------|
B|----------------------------------|----------------------------------|
G|----------------------------------|----------------------------------|
D|-------2-4-5-------2-4-5-------2--|-4-2-----------2-4---------2-4-5--|
A|---3-4---------3-4---------3-4----|-----3-4-0-3-4-----0---3-4--------|
E|----------------------------------|----------------------------------|

e|----------------------------------|
B|----------------------------------|
G|----------------------------------|
D|-------2-4-5-------2-4---------3s4|
A|---3-4---------3-4-----0-3-4-0-4s5|
E|----------------------------------|

  Break Riff (Electric 2)
e|----------------------------------|----------------------------------|
B|----------------------------------|--------------------------------0-|
G|----------------------------------|------------------------4-4-4-2-0-|
D|----------------------------------|------------------------5-5-5-4-2-|
A|----------------------------------|----------------------------------|
E|----------------------------------|----------------------------------|

e|----------------------------------|----------------------------------|
B|-----------------------0----------|-------------------0--------------|
G|---0-0-0-------4-4-4-2-0---0---0--|-----------3s4-4-2-0---0-0-0------|
D|-----2-2-4-----5-5-5-4-2---2-2-2--|-4-0-------4s5-5-4-2-----2-2-4----|
A|---------5-3s4--------------------|-5---3-4-0-------------------5-3s4|
E|----------------------------------|----------------------------------|

e|----------------------------------|
B|----------------------------------|
G|---0-3s4-4-2-0---0-0-0------------|
D|-----4s5-5-4-2-----2-2-4----------|
A|-----------------------5-5-3-4-0-0|
E|----------------------------------|

  Main Riff Variation 1(Electric 1)
e|----------------------------------|----------------------------------|
B|----------------------------------|----------------------------------|
G|--------------------------------0-|-0-----------------9-------9-s2---|
D|---4---------2------------------4-|-4-4---------2-7---9-------9-s2---|
A|---5-4-4-0-2-2-2----------------5-|-5-5-4-4-0-2---5---7-10-11--------|
E|---------------0------------------|----------------------------------|

  Main Riff Variation 2(Electric 1)
e|----------------------------------|----------------------------------|
B|----------------------------------|----------------------------------|
G|----------------------------------|---------------7---9-------9-s2---|
D|---4-------2-2------------------4-|-4-4---------2-7---9-9--9--9-s2-2s|
A|-5---4-4-0----------------------5-|-5-5-4-4-0h2---5---7-10-11--------|
E|---------------0------------------|----------------------------------|

  Main Riff Variation 3(Electric 1)
e|----------------------------------|----------------------------------|
B|----------------------------------|---------------------------9-s7---|
G|----------------------------------|-------------------9-------9-s7---|
D|-4-4---------2------------------3s|-4-4---------*-7---9-9-----9-s7-4-|
A|-5---4-4-0-2---2----------------4s|-5-5-4-4-0-2---5---7-10-11--------|
E|---------------0------------------|----------------------------------|

  Main Riff Variation 4(Electric 1)
e|----------------------------------|----------------------------------|
B|----------------------------------|----------------------------------|
G|----------------------------------|-------------------9-------9s7----|
D|---x---------2------------------4-|-4-4---------2-7---9-------9s7--4-|
A|-----4-4-0h2---2------------------|-5-5-4-4-0-2-2-5---7-10-11--------|
E|---------------0------------------|----------------------------------|

  Main Riff Variation 5(Electric 1)
e|----------------------------------|----------------------------------|
B|----------------------------------|---------------------------9-s7---|
G|----------------------------------|---------------7---9-------9-s7---|
D|---4-------2-2------------------3s|-4-4---------2-7---9-------9-s7-3s|
A|-----4-4-0-----2----------------4s|-5---4---0h2---5---7-10h11------4s|
E|---------------0------------------|----------------------------------|

  Main Riff Variation 6(Electric 1)
e|----------------------------------|----------------------------------|
B|----------------------------------|------------------------9-9-s7----|
G|----------------------------------|---------------5---9--9-9-9-s7----|
D|-4-4-------2-2------------------3s|-4-4-------2-2-7---9--9-9-9-s7--3s|
A|-5---4-4-0-2-2-2----------------4s|-5---4-4-0-----5---7------------4s|
E|---------------0------------------|----------------------------------|

  Main Riff Variation 7(Electric 1)
e|----------------------------------|----------------------------------|
B|----------------------------------|---------------------------9-s7---|
G|----------------------------------|---------------7---9-------9-s7---|
D|-4-4-------2-2------------------3s|-4-4-------2-2-7---9-9--9--9-s7-3-|
A|-5---4-4-0-----2----------------4s|-5---4-4-0-----5---7-10-11------4-|
E|---------------0------------------|----------------------------------|

  Main Riff Variation 8(Electric 1)
e|----------------------------------|----------------------------------|
B|----------------------------------|----------------------------------|
G|----------------------------------|---------------7---9-------9------|
D|-4-4-------2-2------------------3s|-4-4---------2-7---9-------9------|
A|-5---4-4-0-----2----------------4s|-5---4-4-0-2---5---7-10h11--------|
E|---------------0------------------|--------------------------------0-|


  Break Riff Variation 1(Electric 1)
e|----------------------------------|----------------------------------|
B|----------------------------------|----------------------------------|
G|----------------------------------|---------------7---9--------------|
D|-4-4---------2------------------4-|-4-4-------2---7---9--------2-4---|
A|-5-5-4-4-0-2---2------------------|-5-5-4-4-0-2---5---7----3-4-----0-|
E|---------------0------------------|----------------------------------|

e|----------------------------------|----------------------------------|
B|----------------------------------|----------------------------------|
G|----------------------------------|----------------------------------|
D|-------2-4-5-------2-4-5-------2--|-4-2-----------2-4---------2-4-5--|
A|---3-4---------3-4---------3-4----|-----3-4-0-3-4-----0---3-4--------|
E|----------------------------------|----------------------------------|

e|----------------------------------|
B|----------------------------------|
G|-------------------------------3s4|
D|-------2-4-5-------2-4------------|
A|---3-4---------3-4-----0-3-4-0-4s5|
E|----------------------------------|

  Riff 2(Electric 1)Played with fingers and pick
e|----------------------------------|
B|----------------------------------|
G|-4-4s2-0-0-1---1---1-2-1---1-2-3s-|
D|-----------0---0-------0----------|
A|-5---4---2-----2---2-4-2---2-4-4s-|
E|---------------0------------------|

  Riff 2 variation 1(Electric 1)Played with fingers and pick
e|----------------------------------|
B|----------------------------------|
G|-4-4---0-0-1---1---1-2-1---1-2-2s-|
D|---------0------------------------|
A|-5---4---2-----2-----4-2-----4-4s-|
E|-------------0--------------------|

  Riff 2 variation 2(Electric 1)Played with fingers and pick
e|-------------0--------------------|
B|-------------0--------------------|
G|-4-4s2-0-0-1---1---1-2-1---1-2-2s-|
D|---------------0-------0----------|
A|-5---4---2-----2---2-4-2---2-4-4s-|
E|---------------0------------------|



  Riff 2 variation 3(Electric 1)Played with fingers and pick
e|----------------------------------|
B|-----------------------9-9-9s4----|
G|-4-4s2-0-0-1---7---9---9-9-9s4-3s-|
D|---------------7---9---9-9-9s4----|
A|-5---4---2-----5---7-----------4s-|
E|----------------------------------|

  Riff 2 variation 4(Electric 1)Played with fingers and pick
e|----------------------------------|
B|-----------------------------9----|
G|-4-4s2-0-0-1---7---9---------9----|
D|-------------2-7---9---------9----|
A|-5---4---2-----5---7---10s11------|
E|--------------------------------0-|

  
  Solo(Electric 3)with tremelo bar
e|----------------------------------|----------------------------------|
B|-----------9\7/9------------------|--------------5-------------------|
G|-----------9\7/9------------------|----------------7------------4-6--|
D|-----------9\7/9-----9-0~~~~~~~~~~|~~--------0s6------------5s6------|
A|-----------7\5/7------------------|----------------------------------|
E|----------------------------------|----------------------------------|

e|----------------------------------|----------------------------------|
B|-5-----7-b8-r7-b8-r7-b8-b9------8b|10-------8b12--8b12r8p7-----------|
G|----------------------------------|------------------------7---------|
D|----------------------------------|----------------------------------|
A|----------------------------------|----------------------------------|
E|----------------------------------|----------------------------------|

e|---------------------------12-----|---*------------------------------|
B|----11---b12--11b12r11p9----------|----*---------10b12r10b12----10b12|
G|----------------------------------|-----9h12-------------------------|
D|----------------------------------|----------------------------------|
A|----------------------------------|----------------------------------|
E|----------------------------------|----------------------------------|

e|----------------------------------|----------------------------------|
B|r10p8-----b9--10\8/10\8/10----8b10|r8p5-5---5---5---5h8p5------------|
G|----------------------------------|-------7---7---7-------7----------|
D|----------------------------------|----------------------------------|
A|----------------------------------|------------------------------0---|
E|----------------------------------|----------------------------------|

e|--------12----------0------15-----|-15------15-------0---------------|
B|------12--15-15b17--15b17----15b17|---15b17----15b17---15b17r15------|
G|-14b15----------------------------|-----------------------------14b16|
D|----------------------------------|----------------------------------|
A|----------------------------------|----------------------------------|
E|----------------------------------|----------------------------------|

e|----------------------------------|----------------------------------|
B|----------------------------------|--------------------12---12\!-----|
G|-14b16-14-13-14-12-14--14p12--b13-|--------------12-12-12---12\!-----|
D|----------------------------------|-----------12---------------------|
A-----------------------------------|-----12h14------------------------|
E|----------------------------------|----------------------------------|

e|----------------------------------|----------------------------------|
B|----------------------------------|------------12\10/12\10/12\10/12--|
G|----------------------------------|------------12\10/12\10/12\10/12--|
D|----------------------------------|----------------------------------|
A|----------------------------------|----------------------------------|
E|----------------------------------|----------------------------------|



  Riff 3(Electric 1)
e|----------------------------------|----------------------------------|
B|---------9---------------7-----7--|----------------------------------|
G|---------9-----9---------7-----7--|-------2---2-------------2-4------|
D|---9--9--9-----11---7-7--7-----9--|---2-2-2---2-4-2-2---4---2-4------|
A|---10-11------------8-9-----------|---3-4-----------------------*----|
E|----------------------------------|-------------------------------0--|

  Riff 3 Variation 1(Electric 1)
e|----------------------------------|----------------------------------|
B|---------9---------------7-----7--|----------------------------------|
G|---------9-----9---------7-----7--|-------2---2-------------2-4------|
D|---9--9--9-----11---7-7--7-----9--|---2-2-2---2-4p2-2---4---2-4------|
A|---10-11------------8-9-----------|---3-4----------------------------|
E|----------------------------------|-----------------------------0-0--|

  Riff 3 Variation 2(Electric 1)
e|----------------------------------|----------------------------------|
B|---------9---------------7-----7--|----------------------------------|
G|---------9-----9---------7-----7--|-------2---2-------------2-4------|
D|---9--9--9-----11---7-7--7-----9--|---2-2-2---2-4-2-2---4---2-4---4--|
A|---10-11------------8-9-----------|---3-4-----------------------0-5--|
E|----------------------------------|----------------------------------|

  Riff 3 Variation 3(Electric 1)
e|----------------------------------|----------------------------------|
B|---------9---------------7--------|----------------------------------|
G|---------9-----11--------7-----9--|-------2---2-------------2-4------|
D|---9--9--9-----11---7-7--7-----9--|-------2---2-4-*-2---4---2-4------|
A|---10-11------------8-9-----------|---3-4-----------------------0----|
E|----------------------------------|-------------------------------0--|

  Riff 3 Variation 4(Electric 1)
e|----------------------------------|----------------------------------|
B|---------9---------------7--------|----------------------------------|
G|---------9-----11--------7-----9--|-------2---2----------------------|
D|---9--9--9-----11---7-7--7-----9--|-------2---2-4-2-5---4---2-4------|
A|---10-11------------8-9-----------|---3-4-----------------------0----|
E|----------------------------------|-------------------------------0--|

  Riff 3 Variation 5(Electric 1)
e|----------------------------------|----------------------------------|
B|---------9---------------7--------|----------------------------------|
G|---------9-----11--------7-----9--|-------2---2----------------------|
D|---9--9--9-----11---7-7--7-----9--|-------2---2-4-2-5---4---2-4------|
A|---10-11------------8-9-----------|---3-4-----------------------0-0--|
E|----------------------------------|----------------------------------|

  Riff 3 Variation 6(Electric 1)
e|----------------------------------|----------------------------------|
B|---------9---------------7-----7--|-------------------------------2--|
G|---------9-----9---------7-----7--|-------2---2-----2---4---2-----2--|
D|---9--9--9-----11---7-7--7-----9--|---2-2-2---2-4-2-2---4---2-----2--|
A|---10-11------------8-9-----------|---3-4---------------------0---0--|
E|----------------------------------|-----------------------------0----|


  Riff 3(Electric 2)
e|----------------------------------|----------------------------------|
B|---------9---------------7-----7--|----------------------------------|
G|---------9-----9---------7-----7--|-------2---2-------------2-4------|
D|---9--9--9-----11---7-7--7-----9--|---2-2-2---2-4-2-2---4---2-4------|
A|---10-11------------8-9-----------|---3-4-----------------------0----|
E|----------------------------------|-------------------------------0--|

  Fill 1(Electric 2)
e|----------------------------------|----------------------------------|
B|----------------------------------|----------------------------------|
G|----------------------------------|----------------------------------|
D|----------------------------------|----------------------------------|
A|---------------2------------------|----------------------------------|
E|---------------0------------------|----------------------------------|
  
  Fill 2(Electric 2)
e|--------------------------------0-|----------------------------------|
B|----------------------------------|--5-5-3-3-2-2-3-3-2-2-------------|
G|----------------------------------|--6-6-4-4-2-2-4-4-2-2-------------|
D|----------------------------------|-------{0-0}----------4-4-2-------|
A|----------------------------------|----------------------------3-4---|
E|----------------------------------|--------------------------------0-|
  The notes inside these {} are played 
  only the first time this fill is played

  Fill 2 Variation 1(Electric 2)
e|--------------------------------0-|----------------------------------|
B|----------------------------------|--5-5-3-3-2-2-3-3-2-2-------------|
G|----------------------------------|--6-6-4-4-2-2-4-4-2-2-------------|
D|----------------------------------|----------------------4-4-2-------|
A|----------------------------------|----------------------------3-4-0-|
E|----------------------------------|----------------------------------|

  Fill 2 Variation 2(Electric 2)
e|--------------------------------0-|----------------------------------|
B|----------------------------------|--5-5-3-3-2-2-3-3-2-2-----------2-|
G|----------------------------------|--6-6-4-4-2-2-4-4-2-2-----------2-|
D|----------------------------------|----------------------4-4-2-----2-|
A|----------------------------------|----------------------------3-4-0-|
E|----------------------------------|----------------------------------|


  Riff 4(Electric 4)
e|---5-----5-------7-5--------------|-5-----------------------5------5-|
B|---5---5-5-8-7-5-----8-7-5-----5--|---8-7-5-----5-----------5------5-|
G|-----6---------------------5-6----|---------5h6-6-----------6------6-|
D|----------------------------------|-------------7-----------7------7-|
A|----------------------------------|-------------------------------{0}|
E|----------------------------------|----------------------------------|
the note inside the {} is played by Electric 1


  Riff 4(Electric 5)
e|----------------------------------|----------------------------------|
B|----------------------------------|----------------------------------|
G|---------2-------4-2--------------|-2--------------------------------|
D|-------2---5-4-2-----5-4-2-----2--|---5-4-2-----------------2------2-|
A|---3-4---------------------3-4----|---------3-4-0-----------0------0-|
E|----------------------------------|----------------------------------|

  Riff 4(Electric 1)
e|----------------------------------|----------------------------------|
B|----------------------------------|----------------------------------|
G|---------2-------4-2--------------|-2-----------2-----------2------*-|
D|-------2---5-4-2-----5-4-2-----2--|---5-4-2-----2-----------2------*-|
A|---3-4---------------------3-4----|---------3-4----------------------|
E|----------------------------------|----------------------------------|

 Riff 4 Variation 1(Electric 1)
e|----------------------------------|----------------------------------|
B|----------------------------------|----------------------------------|
G|---------2-------4-2--------------|-2--------------------------------|
D|-------2---5-4-2-----5-4-2-----2--|---5-4-2-----------------2------2-|
A|---3-4---------------------3-4----|---------3-4-0-----------0------0-|
E|----------------------------------|----------------------------------|

 Riff 4 Variation 1(Electric 1)
e|----------------------------------|----------------------------------|
B|----------------------------------|----------------------------------|
G|---------2-------4-2--------------|-2-----------2-----------2------2-|
D|-------2---5-4-2-----5-4-2-----2--|---5-4-2-----2-----------2------2-|
A|---3h4---------------------3h4----|---------3h4--------------------0-|
E|----------------------------------|----------------------------------|

 Riff 4 Variation 2(Electric 1)
e|----------------------------------|----------------------------------|
B|----------------------------------|----------------------------------|
G|---------2-------4-2--------------|-2-----------2-----------2--2-----|
D|-------2---5-4-2-----5-4-2-----2--|---5-4-2-----2-----------2--2-----|
A|---3h4---------------------3h4----|---------3h4----------------------|
E|----------------------------------|----------------------------------|

  Fill 3(Electric 1)
e|----------------------------------|
B|----------------------------------|
G|----------------------------------|
D|-2--------------------------------|
A|{0}-------------------------------|
E|--------------------------------0-|

The note inside {} is played by both Electric 1 and Electric 2



  Fill 4(Electric 6)
e|----------------------------------|----------------------------------|
B|--------------------------------8s|10-10-8-8-5-5-7-7-5-5-------------|
G|--------------------------------9s|11-11-9-9-6-6-7-7-6-6-4-4-2-------|
D|----------------------------------|----------------------------4-4-2-|
A|----------------------------------|----------------------------------|
E|----------------------------------|----------------------------------|

  Fill 4 variation 1(Electric 6)
e|----------------------------------|----------------------------------|
B|--------------------------------8s|10-10-8-8-*-----------------------|
G|--------------------------------9s|11-11-9-9-*-6-7p6-6-6-4---2-------|
D|----------------------------------|----------------------------2-----|
A|----------------------------------|------------------------------0---|
E|----------------------------------|----------------------------------|

  Fill 5(Electric 1)
e|----------------------------------|
B|----------------------------------|
G|-2--------------------------------|
D|-2--------------------------------|
A|-0--------------------------------|
E|----------------------------------|




Song Progresstion
Intro(Electric 1) 1x
Main Riff (Electric 1) 6x
Break Riff (Electric 1) and Break Riff (Electric 2)  1x

Main Riff Variation 1(Electric 1) 1x
Main Riff Variation 2(Electric 1) 1x
Main Riff Variation 3(Electric 1) 1x
Main Riff (Electric 1) 2x
Break Riff Variation(Electric 1) and Break Riff (Electric 2)  1x

Riff 2 variation 1(Electric 1) 1x
Riff 2 variation 2(Electric 1) 2x
Riff 2 (Electric 1) 6x
Riff 2 variation 3(Electric 1) 1x
Riff 2 (Electric 1) 1x
Riff 2 variation 4(Electric 1) 1x *
Riff 3 Variation 1(Electric 1) 1x
Riff 3(Electric 1) 2x @
Riff 3 Variation 2(Electric 1) and Riff 3(Electric 2)1x

Note Electric 2 doubles Electic 1 from the last note in * to the end of @

Solo(Electric 3) and 
Main Riff Variation 4(Electric 1) 1x then Main Riff (Electirc 1) 4x then
Break Riff (Electric 1) and Break Riff (Electric 2)  1x 

Main Riff Variation 5(Electric 1) and Fill 1(Electric 2) 1x
Main Riff Variation 6(Electric 1) and Fill 1(Electric 2) 1x
Main Riff Variation 7(Electric 1) and Fill 1(Electric 2) 3x
Main Riff Variation 8(Electric 1) and Fill 1(Electric 2) 1x

Riff 3 Variation 3(Electric 1) and Fill 2(Electric 2) 3x
Riff 3 Variation 4(Electric 1) and Fill 2(Electric 2) 1x
Riff 3 Variation 3(Electric 1) and Fill 2(Electric 2) 1x
Riff 3 Variation 5(Electric 1) and Fill 2 Variation 1(Electric 2) 1x
 
Riff 4(Electric 4) and Riff 4(Electric 5) 1x
Riff 4(Electric 1) doubled by Elecric 2 1x   
Fill 3(Electric 1) 1x

Riff 3(Electric 1) and Fill 2(Electric 2) and Fill 4(Electric 6) 5x

Riff 3 Variation 6(Electric 1) and 
        Fill 2 Variation 2(Electric 2) and Fill 4 Variation 1(Electric 6)
1x

Riff 4 Variation 1(Electric 1) doubled by Elecric 2 1x   
Riff 4 Variation 2(Electric 1) doubled by Elecric 2 1x  
Fill 5(Electric 1) doubled by Elecric 2 1x

Lyrics

I was burned in the heat of the moment,
No, it could've been the heat of the day
When I learned how my time had been wasted,
Dear fellows I turned away
Now I've got friends who will give me their shoulder,
When I should happen to fall
Time and his bride growing older
I've got friends who will give me fuck all 

La la la la la la yeah
La la la la la la na baby
La la la la la la yeah
La la la la la la 

Corner of Bleeker and nowhere
In the land of not quite day
A shiver runs down my backbone
Face in the mirror turns grey
So, looked around for a hitch from a reindeer
Search hard tryin' find in the day
I turned around to look for the snowman
To my surprise he'd melted away. Yeah 

La la la la la la yeah
La la la la la la na baby
La la la la la la yeah
La la la la la la 

The moon and the stars grow older
Sabotage stands to ebb and sway
The sun in my soul's sinking lower
While the hope in my hands turns to clay
I don't ask that my fists full of clover
I don't roam at opportunity's door
Why don't you ask my advice, take it slower 
Then your story'd be your finest reward.

La la la la la la yeah
La la la la la la na baby
La la la la la la yeah
La la la la la la Now do it

Oh, oh oh oh, oh oh oh, 
oh oh oh, oh oh oh, oh oh oh
oh oh oh, oh oh oh, oh oh oh
oh oh oh, oh oh oh, oh oh oh
oh oh oh, oh oh oh, oh oh oh

Lost on the path to attainment
Searchin' the eyes of the wise
When I bled from the heart of the matters 
I started bleeding without a disguise
Now that everything's finally heaven
Now and then you've got to take time to pose
Let you down on the ground, We'll have you messin' around
If you land in a boat without oars

La la la la la la yeah
La la la la la la na baby
La la la la la la yeah
La la la la la la 


Hey babe oh , Hey babe oh, Hey babe,
I lost my way.
Hey babe oh , Hey babe oh, Hey babe,
I lost my way.
Hey babe oh, Hey babe oh ,
I don't know where I'm gonna find it.
Hey babe oh , Hey babe oh,
Do you wanna know,
Do you really, really, wanna help me, yeah?
Let me tell you now, babe oh
Let me tell you oh
That it feels so good that it must be right
Now my babe oh , 
Let me tell you oh,
If it feels so good that it must be right
Now my babe oh , 
Let me tell you oh,
If it feels if it feels if it feels if it feels 
so good, so good, so good. Oh yes yeah.

NOTATION USED:
p=pull off 
h=hammer on
s=slide
b=bend
r=release
X=right hand palm mute
x=left hand palm mute
*=percusive mute
\ & /=use tremelo to lower & raise notes
\!=use tremelo to drop note far as possible
~tremelo vibrato 
---------------------------------------------------------------------------





Comments


Popular Led Zeppelin tabs & chords
Candy Store Rock Drum Tabs
Hots On For Nowhere Drum Tabs
Misty Mountain Hop Drum Tabs
Bron Y Aur Stomp 2 Tabs
Bron Y Aur Stomp Intro Tabs
Bron Yr Aur Stomp 1 Tabs
Heartbreaker Tabs
How Many More Times 3 Tabs
Rock N Roll 1 Tabs
Street Corner Girl Ukulele


Song lyrics



↑ Back to top | Tablatures and chords are parodies/interpretations of the original songs. You may use it for private study, scholarship, research or language learning purposes only
© 2014 AZChords.com Contact us | Privacy policy | DMCA | Add/correct tabs | Request tabs | Top 50 tabs