>
 >
Hot Dog

Hot Dog Bass Tabs

Led Zeppelin - Hot Dog chords, tabs, tablatures, lyrics

Guitar lessons | Add/correct | Request | Top 50 tabs Artists:  A B C D E F G H I J K L M N O P Q R S T U V W X Y Z 0-9

Hot Dog Bass Tabs – Led Zeppelin

CD, Sheet music, Poster

Do you like Hot Dog? Share with your friends now
Bass TabsDrum TabsTabsTabs v2
Hot Dog
Led Zeppelin

G|----------------|----------------|----------------|----------------|
D|----------------|----------------|----------------|----------------|
A|----------------|----------------|----------------|----------------|
E|----------------|----------------|----------------|----------0-1-2-|

G|----------------|--------5-------|----------------|----------------|
D|--------5-------|----5--5--2-3-4-|5------55-------|----------------|
A|----5--5--0-1-2-|3--3------------|---55-----2-3-4-|5-2-3-4-5-------|
E|3--3------------|----------------|----------------|----------0-1-2-|

G|----------------|--------5-------|----------------|----------------|
D|--------5-------|---25--5--2-3-4-|5---------------|--------5-------|
A|---55--5--0-1-2-|3---------------|--2-3-4-5-------|---02-5---------|
E|3---------------|----------------|----------0-1-2-|3---------0-1-2-|

G|----------------|--------5-------|----------------|----------------|
D|--------5-------|----5--5--2-3-4-|5------55-------|----------------|
A|----5--5--0-1-2-|3--3------------|---55-----2-3-4-|5-2-3-4-5-------|
E|3--3------------|----------------|----------------|----------0-1-2-|

G|----------------|----------------|----------------|----------------||
D|--------5-------|----------2-3-4-|5---------------|-------55-------||
A|---55--5--0-1-2-|3--3----3-------|--2-3-4-5-------|---55-----0-1-2-||
E|3---------------|----3--3--------|----------0-1-2-|3---------------||
                                                        Well I, well I, well I

G|----------------|--------5-------|----------------|----------------|
D|--------5-------|----5--5--2-3-4-|5------55-------|----------------|
A|----5--5--0-1-2-|3--3------------|---55-----2-3-4-|5-2-3-4-5-------|
E|3--3------------|----------------|----------------|----------0-1-2-|
  just got into town today....

G|----------------|--------5-------|----------------|----------------|
D|--------5-------|---25--5--2-3-4-|5---------------|--------5-------|
A|---55--5--0-1-2-|3---------------|--2-3-4-5-------|---02-5---------|
E|3---------------|----------------|----------0-1-2-|3---------0-1-2-|

G|----------------|----------------|----------------|----------------|
D|--------5-------|----------2-3-4-|5------55-------|----------------|
A|----5--5--0-1-2-|3-0----335------|---55-----2-3-4-|5-2-3-4-5-------|
E|3--3------------|---33-----------|----------------|----------0-1-2-|

G|----------------|----------------|----------------|----------------||
D|--------5-------|----------2-3-4-|5---------------|--------5-5-4-7-||
A|---55--5--0-1-2-|3-0----335------|--2-3-4-5-------|----5--5--------||
E|3---------------|---33-----------|----------0-1-2-|3-57------------||

G|----------------|----------------|----------------|----------------|
D|---77------77---|5------55-------|----------------|5--02-----------|
A|5------55------5|---55----02-3-4-|5------55-----5-|-------02-------|
E|----------------|----------------|---55------55---|----------3-0-2-|
  Now my baby's gone....

G|----------------|----------------|----------------|----------------||
D|----------2-3-4-|5-------5---5-6-|7---------------|----------------||
A|3------33-------|----5-----------|---77---0-2-3-4-|5---------------||
E|---33-----------|----------------|----------------|----------0-1-2-||

G|----------------|----------------|----------------|----------------|
D|--------5-------|----------2-3-4-|5------55-------|----------------|
A|----5--5--0-1-2-|3-0----335------|---55-----2-3-4-|5-2-3-4-5-------|
E|3--3------------|---33-----------|----------------|----------0-1-2-|

G|----------------|----------------|----------------|----------------||
D|--------5-------|----------2-3-4-|55--------------|--------5-------||
A|---55--5--0-1-2-|3-------3-------|--2-3-4-5-------|-----575--------||
E|3---------------|---33--3--------|----------0-1-2-|3--57-----0-1-2-||

  Guitar Solo
G|----------------|----------------|----------------|----------------|
D|--------5-------|----5--5--2-3-4-|5------55-------|----------------|
A|----5--5--0-1-2-|3--3----3-------|---55-----2-3-4-|5-2-3-4-5-------|
E|3--3------------|----------------|----------------|----------0-1-2-|

G|----------------|----------------|----------------|----------------|
D|--------5-------|----------2-3-4-|5---------------|--------5-------|
A|---55--5--0-1-2-|3--3----3-------|--2-3-4-5-------|---02-5---------|
E|3---------------|----3--3--------|----------0-1-2-|3---------0-1-2-|

G|----------------|--------5-------|----------------|----------------|
D|--------5-------|----5--5--2-3-4-|5------55-------|----------------|
A|----5--5--0-1-2-|3--3------------|---55-----2-3-4-|5-2-3-4-5-------|
E|3--3------------|----------------|----------------|----------0-1-2-|

G|----------------|----------------|----------------|----------------||
D|--------5-------|----------223-4-|5---------------|-------55-------||
A|---55--5--0-1-2-|3-------3-------|--2-3-4-55------|---55-----0-1-2-||
E|3---------------|---33--3-0------|----------0-1-2-|3---------------||

G|----------------|----------------|----------------|----------------|
D|---77-------7---|5-------5-554---|------------7---|5-------5-------|
A|5------55------5|---55---------7-|5------55-------|---55--5-5--0-2-|
E|----------------|----------------|---55-----------|----------3-----|
  Now my baby's gone I don't know what to do....

G|----------------|----------------|----------------|----------------||
D|----------2-3-4-|5-------5-4-5-6-|7---------------|----------------||
A|3-------35------|---55-----------|---77---0-2-3-4-|5---------------||
E|---33--3--------|----------------|----------------|----------0-1-2-||

G|----------------|----------------|----------------|----------------|
D|--------5-------|----------2-3-4-|5---------------|----------------|
A|----5--5--0-1-2-|3-0----335------|---55--5--2-3-4-|5-2-3-4-5-------|
E|3--3------------|---33-----------|--------3-------|----------0-1-2-|

G|----------------|----------------|----------------|----------------|
D|--------5-------|----------2-3-4-|5---------------|--------5-----5-|
A|---55--5--0-1-2-|3------33-------|--2-3-4-5-------|-----575---77---|
E|3---------------|---33-----------|----------0-1-2-|3-567-----------|

G|----------------|----------------|----------------|----------------|
D|----------------|--------5-2-3-4-|5---------------|--------5-------|
A|--2-3-4-5-------|---55--5--------|--2-3-4-5-------|-----575--------|
E|3---------0-1-2-|3---------------|----------0-1-2-|3-557-----------|

G|----------------|----------------|----------------|----------------|----------------||
D|----------------|----------5-----|----------------|----------------|----------------||
A|----------------|----------------|----------------|----------5-----|----------------||
E|----------------|----------------|----------------|------------3---|(3)-------------||

Led Zeppelin is #1 Band





Comments


Popular Led Zeppelin tabs & chords
Baby Im Gonna Leave You Bass Tabs
Moby Dick 4 Bass Tabs
Hey Hey What Can I Do Chords
Stairway To Heaven 3 Chords
All Of My Love Tabs
Black Dog Live Tabs
Moby Dick 1 Tabs
Rock And Roll Tabs
Tangerine 7 Tabs
What Is And What Should Never Be 1 Tabs


Song lyrics



↑ Back to top | Tablatures and chords are parodies/interpretations of the original songs. You may use it for private study, scholarship, research or language learning purposes only
© 2014 AZChords.com Contact us | Privacy policy | DMCA | Add/correct tabs | Request tabs | Top 50 tabs