» » »

Led Zeppelin, D'yer Maker Bass tabs (ver.6)

Artists:  A B C D E F G H I J K L M N O P Q R S T U V W X Y Z # 

D'yer Maker Bass tabs (ver.6)

Led Zeppelin Tabs
 Rating:
4/5 (4 votes)
D'yer Maker lessons Tabs too difficult? Try these video lessons and learn fast
                Led Zeppelin      |....----|.---------|
D'yer Mak'er      |--------|----..----|
bass tab          |--------|---:--..--|
pick              |--------|--------..|
                       4:8   5:8
  0.03          intro              t:95
|--------|--------|--------|--------|
|-----24-|--------|--------|--------|
|2-2-4---|0-----2-|-\------|--------|
|--------|--4--4-4|210-=---|22-34-2-|

|--------|--------|--------|--------|
|-----24-|--------|--------|--------|
|2-234---|0-----2-|--------|--------|
|--------|--4--4-4|2-0-=-.o|22-3442-|

  0.15          verse 1a
|--------|--------|--------|--------|
|-----24-|--------|--------|--------|
|2-234---|0-----2-|--------|--------|
|--------|--4--4-4|2-0-=-..|22-2.-4-|

|--------|--------|--------|--------|
|-----24-|--------|--------|--------|
|2-2-4---|0-----2-|--------|------4-|
|--------|--4--4-4|0o-.0o..|2-234---|

|--------|--------|--------|--------|
|-----24-|--------|--------|--------|
|2-234---|0-----2-|--------|------0-|
|--------|--4--4-4|2-0-=--.|2-2.2---|

|------`-|----`--`|```-----|--------|
|--------|--.-----|-----.-.|.-4320--|
|--------|--------|--------|--...-43|
|4-------------------------|-----...|

  0.39          verse 1b
|--------|--------|--------|--------|
|-----24-|--------|--------|--------|
|2-234---|0-----2-|--------|------o-|
|--------|--4--4-4|2-0--...|22-234--|

|--------|--------|--------|--------|
|-----24-|--------|--------|--------|
|2-234---|0-----2-|--------|--------|
|--------|--4--4-4|2.0-=-oo|22-23-4-|

|--------|--------|--------|--------|
|-----24-|--------|--------|--------|
|2-234---|0-----2-|-^------|--------|
|--------|--4--4-4|2o0o--2o|2222-43-|

|--------|-------`|`-----``|-...----|
|--------|--------|--'-----|----..--|
|--------|--------|----'---|------..|
|4---------------------4\--|--------|

  1.02          chorus 1
|--------|--------|--------|----^---|
|--------|--------|--------|---o4---|
|--------|--------|--------|--------|
|54-34--.|44-4---.|32-2---.|22------|

|--------|--------|--------|--------|
|--------|--------|--------|--------|
|o-------|--------|--------|--------|
|-4-34---|44-44---|32-12--o|32-12---|

|--------|--------|--------|--------|
|--------|--------|--------|--------|
|--------|--------|--------|--------|
|54-34---|44-44--.|32-12---|22-22---|

|--------|--------|--'-----|-'..'.''|
|--------|--------|----.---|-42o2o--|
|--------|--------|------.-|------4o|
|o----------------|2----------------|

  1.26          verse 2a
|--------|--------|--------|--------|
|-----24-|--------|--------|--------|
|2-234---|0-----2-|-^-----^|------0-|
|--------|--4--4-4|2o0--o2o|223344--|

|--------|--------|--------|--------|
|-----24-|--------|--------|--------|
|2-2-4---|0-----2-|--------|---^-2--|
|--------|--4--4-4|2.0-=--o|2.234-4-|

|--------|--------|--------|--------|
|-----24-|--------|--------|--------|
|2-234---|0-----2-|--------|--4---^^|
|--------|--4--4-4|2-0-=--o|20-2-o23|

|------'-|--------|----'---|```-.-..|
|--------|----.---|.-.-----|--------|
|--------|--------|--------|----2--^|
|4-------------------------|-----424|

  1.49          verse 2b
|--------|--------|--------|--------|
|-----24-|--------|--------|--------|
|2-234---|0-----2-|--------|------0-|
|--------|--4--4-4|2-0-=--.|22334.--|

|--------|--------|--------|--------|
|-----24-|--------|--------|--------|
|2-234---|0-----2-|-^------|-^-^-2--|
|--------|--4--4-4|2o0-=--o|2o234-4-|

|--------|--------|--------|--------|
|-----24-|--------|--------|--------|
|2-234---|0-----2-|-^------|----2-^^|
|--------|--4--4-4|2o0----o|2o4o-o23|

|--------|-------`|'-------|--''----|
|--------|--------|--'.`'.-|.'--''..|
|--------|--------|--------|--------|
|4-------------------------|--------|

  2.12          chorus 2
|--------|--------|--------|--------|
|--------|--------|------4.|------4-|
|--------|--------|--------|--------|
|54-34---|44-44---|32-12---|22-22---|

|--------|--------|--------|--------|
|--------|--------|--------|--------|
|o-------|---o----|--------|--------|
|-4-34---|44--4---|32-22---|22-o2---|

|--------|--------|--------|--------|
|--------|--------|--------|--------|
|--------|--------|--------|--------|
|54-34---|44-44---|32-12---|22-22-\-|

|--------|-`''..--|----.---|-..-----|
|--------|------``|'--'---'|--------|
|--------|--------|--------|--------|
|o----------------|2-------------024|

  2.36          solo
|--------|--------|--------|--------|
|-----24-|--------|--------|--------|
|2-234---|0-----2-|--------|------0-|
|--------|--4----4|2-0-=--o|22334---|

|--------|--------|--------|--------|
|-----24-|--------|--------|-----2--|
|2-234---|0-----2-|--------|--234-43|
|--------|--4--4-4|2-0-=--o|24------|

|--------|--------|--------|--------|
|-----24-|--------|--------|--------|
|2-234---|0-----2-|--------|^^-^2---|
|--------|--4--4-4|2-0-=--o|2334-43-|

|--------|----.--:|'''--:''|'''''`-.|
|------'-|--'-----|--------|--------|
|--------|--------|--------|--------|
|4-------------------------|--------|

  2.59          verse 3a
|--------|--------|--------|--------|
|-----24-|--------|--------|--------|
|2-234---|0-----2-|--------|------0-|
|--------|--4--4-4|2.0-=--.|2.234.--|

|--------|--------|--------|--------|
|-----24-|--------|--------|--------|
|2-234---|0-----2-|--------|------0-|
|--------|--4--4-4|2-0-=--o|2-234.--|

|--------|--------|--------|--------|
|-----24-|--------|--------|--------|
|2-234---|0-----2-|--------|------0-|
|--------|--4--.-4|2-0-=--o|23-34---|

|------'-|--.-----|'-.-----|-'.-'.--|
|--------|--------|----'---|---'--'.|
|--------|--------|--------|--------|
|4-------------------------|-----234|

  3.22          verse 3b
|--------|--------|--------|--------|
|-----24-|--------|--------|-------^|
|2-234---|0-----2-|-^------|-----o2o|
|--------|--4--4-4|2o0-=--o|2-34----|

|--------|--------|--------|--------|
|-----24-|--------|--------|--------|
|2-234---|0-----2-|-^------|----2---|
|--------|--4--4-4|2o0o0o..|234.-424|

|--------|--------|--------|--------|
|-----24-|--------|--------|--------|
|2-2-4---|0-----2-|--------|------0-|
|--------|--4--4-4|2-0----o|2.3.4.--|

|--------|--------|--.---.-|--.-.-.-|
|-----24-|--------|--------|--------|
|2-234---|0-----2-|--------|--------|
|--------|--4--4-4|2-0---1-|--2-3-4-|

  3.45          outro
|--------|--------|--------|--------|
|-----24-|--------|--------|--------|
|2-234---|0-----2-|--------|---^^---|
|--------|--4--4-4|1-0-=--1/2-234---|

|--------|--------|--------|--------|
|-----24-|--------|--------|--------|
|2-234---|0-----2-|--------|-^-^2--^|
|--------|--4--4-4|0-=----o|2334-424|

|--------|--------|--------|--------|
|-----24-|--------|--------|--------|
|2-2-4---|0-----2-|------4-|------0-|
|--------|--4--4-4|2-0----2|2.234---|

|--------|--------|--------|#####'b-|
|-----24-|--------|--------|--------|
|2-234---|0-----2-|--------|------0-|
|--------|--4--4-4|2-0---0-|2-2o2---|

|--------|--------|--------|--------|
|-----24-|--------|--------|--------|
|2-234---|0-----24|--------|-^-0----|
|--------|--4.24--|2.0-----|2o2-2---|
            
Submit corrections

comments powered by Disqus
↑ Back to top | Led Zeppelin Bass for D'yer Maker. Lyrics for acoustic guitar and electric guitar. Tablatures and chords are parodies/interpretations of the original songs. You may use it for private study, scholarship, research or language learning purposes only