>
 >
Darlene

Darlene Bass Tabs

Led Zeppelin - Darlene chords, tabs, tablatures, lyrics

Guitar lessons | Add/correct | Request | Top 50 tabs Artists:  A B C D E F G H I J K L M N O P Q R S T U V W X Y Z 0-9

Darlene Bass Tabs – Led Zeppelin

CD, Sheet music, Poster

Do you like Darlene? Share with your friends now
Bass TabsTabs
Darlene
Led Zeppelin

G|----------------|----------------|----------------|----------------|
D|----------------|----------------|----------------|----------------|
A|--------------1-|(1)-0-1-010---3-|(3)-2-3-2320--5-|(5)-------------|
E|----------------|------------3---|------------3---|----------------|

G|----------------||----------------|----------------|
D|----------------||5-----3-----2---|----2-3-5-3-2---|Repeat
A|(5)-------------||----------------|--5-----------5-| twice
E|----------------||----------------|----------------|

G|----------------|----------------|
D|5---------------|----------------|
A|----------------|----------------|
E|----------------|----------------|

G|----------------|----------------|
D|5-----3-----2---|----2-3-5-3-2---|Repeat
A|----------------|--5-----------5-| twice
E|----------------|----------------|

G|----------------|----------------|
D|5---------------|----------------|
A|----------------|----------------|
E|----------------|----------------|

G|----------------|----------------|
D|5-----3-----2---|----2-3-5-3-2---|Repeat
A|----------------|--5-----------5-| twice
E|----------------|----------------|

G|----------------|----------------|
D|5---------------|----------------|
A|----------------|----------1-2-3-|
E|----------------|----------------|

G|----------------|----------------|----------------|----------------|
D|----------------|----------------|----------------|----------------|
A|----1-2-3-------|--1-2-3---1-2-3-|----1-2-3-------|--1-2-3---1-2-3-|
E|----------------|----------------|----------------|----------------|

G|----------------|----------------|----------------|----------------||
D|----------------|----------------|----------------|----------------||
A|----1-2-3-------|--1-2-3---3-4-5-|----------------|----------------||
E|----------------|----------------|----------------|----------------||

G|----------------|----------------|
D|5-----3-----2---|----2-3-5-3-2---|Repeat
A|----------------|--5-----------5-| twice
E|----------------|----------------|

G|----------------|----------------|
D|5---------------|----------------|
A|----------------|----------1-2-3-|
E|----------------|----------------|

G|----------------|----------------|----------------|----------------|
D|----------------|----------------|----------------|----------------|
A|----1-2-3-------|--1-2-3---1-2-3-|----1-2-3-------|--1-2-3---1-2-3-|
E|----------------|----------------|----------------|----------------|

G|----------------|----------------|----------------|----------------||
D|----------------|----------------|----------------|----------------||
A|----1-2-3-------|--1-2-3---3-4-5-|----------------|----------------||
E|----------------|----------------|----------------|----------------||

G|----------------|----------------|
D|5-----3-----2---|----2-3-5-3-2---|Repeat
A|----------------|--5-----------5-| twice
E|----------------|----------------|

G|----------------|----------------|
D|5---------------|----------------|
A|----------------|----------------|
E|----------------|----------------|

G|----------------|----------------|
D|5-----3-----2---|----2-3-5-3-2---|Repeat
A|----------------|--5-----------5-| twice
E|----------------|----------------|

G|----------------|----------------|
D|5---------------|----------------|
A|----------------|----------1-2-3-|
E|----------------|----------------|

G|----------------|----------------|----------------|----------------|
D|----------------|----------------|----------------|----------------|
A|----1-2-3-------|--1-2-3---1-2-3-|----1-2-3-------|--1-2-3---1-2-3-|
E|----------------|----------------|----------------|----------------|

G|----------------|----------------|----------------|----------------||
D|----------------|----------------|----------------|----------------||
A|----1-2-3-------|--1-2-3---3-4-5-|----------------|----------1-2-3-||
E|----------------|----------------|----------------|----------------||

G|----------------|----------------|----------------|----------------|
D|----------------|----------------|----------------|----------------|
A|----1-2-3-------|--1-2-3---1-2-3-|----1-2-3-------|--1-2-3---1-2-3-|
E|----------------|----------------|----------------|----------------|

G|----------------|----------------|----------------|----------------||
D|----------------|----------------|----------------|----------------||
A|----1-2-3-------|--1-2-3---3-4-5-|----------------|--------------1-||
E|----------------|----------------|----------------|----------------||

G|----------------|----------------|----------------|----------------|
D|----------------|----------------|----------------|----------------|
A|(1)-0-1-010---3-|(3)-2-3-2320--5-|(5)-------------|(5)-----------1-|
E|------------3---|------------3---|----------------|----------------|

G|----------------|----------------|----------------|----------------||
D|----------------|----------------|----------------|----------------||
A|(1)-0-1-010---3-|(3)-2-3-2320--5-|(5)-------------|(5)-------------||
E|------------3---|------------3---|----------------|----------------||

  12/8 time
G|------------------------|------------------3---4-|5-----------------------|
D|----------2-----3-3-----|(3)---4-----5-----------|----------2-----3-3-----|
A|3-----------------------|------------------------|----3-------------------|
E|------------------------|------------------------|------------------------|

G|------------------------|------------------------|------------------------|
D|(3)---4-----5-----------|----------2-----3-3-----|(3)---4---4-5-----------|
A|----------------------1-|3-----------------------|------------------1---2-|
E|------------------3-----|------------------------|----------------3-------|

G|------------------------|------------------------|------------------------|
D|------------------------|------------------------|------------------------|
A|3-----------------------|------------------------|3-----------------------|
E|------------------------|------------------------|----------0------1------|

G|------------------------|------------------------|------------------3---4-|
D|------------------------|------------------3-----|(3)---4-----5---5-------|
A|------------------1---2-|3-----------------------|------------------------|
E|(1)---2-----3---3-------|----------0-------------|------------------------|

G|5-----------------------|------------------------|------------------------|
D|----------2-------3-----|(3)-0-4-----5-----------|------------------------|
A|------3-----------------|----------------------2-|3-----------------------|
E|------------------------|----------------3-3-----|------------------------|

G|------------------------|------------------------|------------------------|
D|------------------------|------------------------|------------------------|
A|------------------------|3-----------------------|------------------1---2-|
E|------------------------|----------0-------1-----|(1)---2-----3---3-------|

G|------------------------|------------------3---4-|5-----------------------|
D|------------------3-----|(3)---4-----5---5-------|------------------3-----|
A|3-----------------------|------------------------|----------3-------------|
E|----------0-------------|------------------------|------------------------|

G|------------------------|------------------------|------------------------|
D|(3)---4-----5---5-------|------------------------|------------------------|
A|------------------1---2-|3-----------------------|------------------------|
E|------------------------|------------------------|------------------8-----|

G|------------------------|------------------------|------------------------|
D|------------------0-----|1-----0-----------------|------------------0-----|
A|------0-----3-----------|------------3-----0---0-|------0-----3-----------|
E|1-----------------------|------------------------|1-----------------------|

G|------------------------|------------------2-----|3-----2-----------------|
D|1-----0-----------------|------2-----5-----------|------------5-----2---0-|
A|------------3-----0---0-|3-----------------------|------------------------|
E|------------------------|------------------------|------------------------|

G|------------------2-----|3-----2-----------------|------------------------|
D|------2-----5-----------|------------5-----0---2-|3---3-1-----0-----------|
A|3-----------------------|------------------------|------------------3-----|
E|------------------------|------------------------|------------------------|

G|------------------------|------------------------|------------------2-----|
D|------------------0-----|3---3-------------0-----|------------------0-----|
A|------0-----3-----------|------0-----3-----------|------0-----3-----------|
E|1-----------------------|------------------------|1-----------------------|

G|------------------------|------------------------|------------------------|
D|------3-----4-----5-----|7-----5-----4-----------|5-----------------------|
A|5-----------------------|------------------5-----|------------------------|
E|------------------------|------------------------|------------------------|

G|------------------------|------------------------|------------------------|
D|------------------------|------------------0-----|1-----0-----------------|
A|------------------------|------0-----3-----------|------------3---3-0-----|
E|------------------------|1-----------------------|------------------------|

G|------------------------|------------------------|------------------2-----|
D|------------------0-----|1-----0-----------------|------2-----5-----------|
A|------0-----3-----------|------------3-----0---0-|3-----------------------|
E|1-----------------------|------------------------|------------------------|

G|3---3-2-----------------|------------------------|5---5-3-----2-----------|
D|------------5-----2-----|------------------------|------------------5-----|
A|------------------------|3-----1-----0-----------|------------------------|
E|------------------------|------------------3-----|------------------------|

G|------------------------|------------------------|------------------------|
D|3-----------------0-----|1-----0-----------------|------------------0-----|
A|------0-----3-----------|------------3-----0-----|------0-----3-----------|
E|------------------------|------------------------|1-----------------------|

G|------------------------|------------------------|------4-----5-----7-----|
D|1-----0-----------------|------3-----4-----5-----|7-----------------------|
A|------------3-----0-----|5-----------------------|------------------------|
E|------------------------|------------------------|------------------------|

G|------------------------|------------------------|------------------------|
D|5-----------------------|------------------------|------------------0-----|
A|------------------------|----------------------0-|------0-----3-----------|
E|------------------------|------------------------|1-----------------------|

G|------------------------|------------------------|------------------------|
D|1-----0-----------------|------------------0-----|3-----3-----4-----5-----|
A|------------3-----------|------0-----3-----------|----3-----------------0-|
E|------------------4---3-|1-----------------------|------------------------|

G|------------------2-----|3-----2-----------------|------------------------|
D|------2-----5---5-------|------------5-----2-----|------0-----2-----3-----|
A|3-----------------------|------------------------|3---3-------------------|
E|------------------------|------------------------|------------------------|

G|------------------------|------------------------|------------------------|
D|5-----------------------|------------------0-----|1-----0-----------------|
A|------3-------3-1-------|------0-----3-----------|------------3---3-0---0-|
E|------------------2-----|1-----------------------|------------------------|

G|------------------------|------------------------|------------------4-----|
D|------------------0-----|1-----0-----------------|------4-----7-----------|
A|------0-----3-----------|------------3---3-0-----|5-----------------------|
E|1---1-------------------|------------------------|------------------------|

G|7-----5-----4-----------|------------------------|------------------------|
D|------------------7-----|5-----------------------|----3-1-----0-----------|
A|------------------------|------------------------|------------------3-----|
E|------------------------|------------------------|1-----------------------|

G|------------------------|------------------------|------------------------|
D|------------------0-----|------------------0-----|1-----0-----------------|
A|------0-----3-----------|------0-----3-----------|------------3-----0---0-|
E|1-----------------------|1-----------------------|------------------------|

G|------------------------|------------------------|------------------------|
D|------------------------|------------------------|------2-----3-----4-----|
A|3-----------------0-----|3-----0-----------0-----|3---3-------------------|
E|------0-----3-----------|------------3-----------|------------------------|

G|------3-----5-5-5-------|------------------------|------------------------|
D|5-----------------------|3---3-1-----0-----------|------------------0-----|
A|------------------3-3-3-|------------------3-----|------0-----3-----------|
E|------------------------|------------------------|1-----------------------|

G|------------------------|------------------------|------4-----5-5---7-----|
D|1-----0-----------------|------4-----5-----6-----|7-----------------------|
A|------------3-----0-5---|5-----------------------|------------------------|
E|------------------------|------------------------|------------------------|

G|------------------------|------------------------|------------------------|
D|5-----------------------|------------------------|------------------0-----|
A|------------------------|------------------------|------0-----3-----------|
E|------------------------|------------------------|1-----------------------|

G|------------------------|------------------------|------------------------|
D|1-----0-----------------|------------------0-----|1-----0-----------------|
A|------------3---3-0-----|------0---0-3-----------|------------3-----0-1-2-|
E|----------------------1-|1---1-------------------|------------------------|

G|------------------2-----|3-----2-----------------|------------------------|
D|------2-----5-----------|------------5-----2-----|------------------------|
A|3---3-------------------|------------------------|3-----1-----0-----------|
E|------------------------|------------------------|------------------3-----|

G|------------------------|------------------------|------------------------|
D|------------------------|------------------0-----|1-----0-----------------|
A|3---3-0-----------------|------0-----3-----------|------------3-----0-----|
E|------------3-----2-----|1---1-------------------|----------------------1-|

G|------------------------|------------------------|------------------------|
D|------------------0-----|1---1-0-----------------|------------4-----7-----|
A|------0-----3-----------|------------3-----3-----|5-----7-----------------|
E|1-----------------------|------------------------|------------------------|

G|7-----5-----4-----------|------------------------|------------------------|
D|------------------7-----|5-----------------------|------------------------|
A|------------------------|------------------------|------------------------|
E|------------------------|------------------------|------------------------|

Led Zeppelin Is #1 Band





Comments


Popular Led Zeppelin tabs & chords
Bring It On Home 2 Bass Tabs
Bring It On Home 3 Bass Tabs
Sick Again 1 Bass Tabs
Fool In The Rain 3 Chords
All My Love 1 Tabs
Black Mountain Side 2 Tabs
Custard Pie Tabs
Hot Dog 1 Tabs
No Quarter 5 Tabs
Nobody S Fault But Mine Harmonica Tabs


Song lyrics



↑ Back to top | Tablatures and chords are parodies/interpretations of the original songs. You may use it for private study, scholarship, research or language learning purposes only
© 2014 AZChords.com Contact us | Privacy policy | DMCA | Add/correct tabs | Request tabs | Top 50 tabs