>
 >
Achilles Last Stand 2

Achilles Last Stand 2 Guitar Tabs

Led Zeppelin - Achilles Last Stand 2 chords, tabs, tablatures, lyrics

Guitar lessons | Add/correct | Request | Top 50 tabs Artists:  A B C D E F G H I J K L M N O P Q R S T U V W X Y Z 0-9

Achilles Last Stand 2 Guitar Tabs – Led Zeppelin

CD, Sheet music, Poster

Do you like Achilles Last Stand 2? Share with your friends now
Bass TabsDrum TabsTabsTabs v2Tabs v3Tabs v4Tabs v5Tabs v6Tabs v7
-------------------------------------------------------------------------------
ACHILLES LAST STAND-Led Zeppelin
-------------------------------------------------------------------------------


Tuning:EADG

For this song John Paul Jones uses a pick with a bright and trebly tone, and an 8 string 
The effect of the 8 string can be recreated with a good  octave pedal.


G|-------------------|
D|-------------------|
A|--77---77---777----|
E|0----0----0--------|
Bass enters at :18
This phrase is repeated with slight variation until 1:50

G|-----------------------|
D|-----------------------|
A|7-5-6-7-5577557-5-6-b8-|
E|-----------------------|

Repeat four times

G|-------------------------|----------------------------|
D|-------------------------|----------------------------|
A|-------------3-----------|---------0-2---3--(3)-------|
E|0----------3-------------|0--2--3------3--------------|

G|-------------------|
D|-------------------|
A|--77---77---777----|
E|0----0----0--------|
Return to this phrase and repeat until 3:29

G|-----------------------|
D|-----------------------|
A|7-5-6-7-5577557-5-6-b8-|
E|-----------------------|
Play this four times again

G|--------------------------------|--------------------------------|
D|--------------------0--2--4--5--|--------------------0--2--4--5--|
A|---------0--2----3--------------|---------0--2----3--------------|
E|0--2--3--------3----------------|0--2--3--------3----------------|
Guitar solo starts here

G|--------------------------------|--------------------------------|
D|--------------------0--2--4--5--|--------------------0--2--4--5--|
A|---------0--2----3--------------|---------0--2----3--------------|
E|0--2--3--------3----------------|0--2--3--------3----------------|

G|--------------------------------|--------------------------------|
D|2222--2222--2222--2222----------|--------------------------------|
A|--------------------------------|3333--3333--3333--3333----------|
E|--------------------------------|--------------------------------|
This section changes time into 5/4
Note that the notes are actually pentuplets (triplets with five notes,
but the last note in the pentuplet is left out)
G|--------------------------------|--------------------------------|
D|2222--2222--2222--2222----------|--------------------------------|
A|--------------------------------|3333--3333--3333--3333----------|
E|--------------------------------|--------------------------3-----|
This last note
is a pick up

G|----------------------------24--|------------------------------24|
D|---------------------2-4-5------|----------------------2--42454--|
A|---------0--2---3--5------------|---------0--2---3--5------------|
E|0--2--3-------3-----------------|0--2--3-------3-----------------|

G|----------------------------0234|--------------------------------|
D|----------------------2-24-4----|----------------------2-4-5-40--|
A|---------0--2---3-35-5----------|---------0--2012-3--5-----------|
E|0--2--3-------3-----------------|0--2--3-------------------------|

G|--------------------------------|--------------------------------|
D|2222--2222--2222--2222---2--0---|----------------------------0---|
A|--------------------------------|3333--3333--3333--3333---3------|
E|--------------------------------|--------------------------------|

G|--------------------------------|--------------------------------|
D|2222--2222--2222--2222---2--0---|----------------------------0---|
A|--------------------------------|3333--3333--3333--3333---3------|
E|--------------------------------|--------------------------------|

G|--------------------------------|--------------------------------|
D|---------------------2--4--5-4--|---------------------2--4--5-4--|
A|---------0-2---3--5-------------|---------0-2---3--5-------------|
E|0--2--3------3------------------|0--2--3------3------------------|
Back to this at 5:01

  G|------------------------------|9-----11-----12----14-----16----|
  D|5----7---9------10-----12-----|--10-----12-----14----16-----17-|
  A|--7----9----10-----12-----14--|--------------------------------|
  E|------------------------------|--------------------------------|
    This indented part is the guitar line at 5:01, I like to play it
     instead of the real bass sometimes


G|-------------------|
D|-------------------|
A|--77---77---777----|
E|0----0----0--------|
Repeat this phrase again until 6:20

G|----------------------------0234|----------------------------0234|
D|----------------------2-24-4----|----------------------2-24-4----|
A|---------0--2---3-35-5----------|---------0--2---3-35-5----------|
E|0--2--3-------3-----------------|0--2--3-------3-----------------|

G|----------------------------0-24|----------------------------0-24|
D|----------------------2-24-4----|----------------------2-24-4----|
A|---------0--2---3-35-5----------|---------0--2---3-35-5----------|
E|0--2--3-------3-----------------|0--2--3-------3-----------------|

G|--------------------------------|--------------------------------|
D|2222--2222--2222--2222---2--0---|----------------------------0---|
A|--------------------------------|3333--3333--3333--3333---3------|
E|--------------------------------|--------------------------------|

G|--------------------------------|--------------------------------|
D|2222--2222--2222--2222---2--0---|----------------------------0---|
A|--------------------------------|3333--3333--3333--3333---3------|
E|--------------------------------|--------------------------------|

G|--------------------------------|--------------------------------|
D|2222--2222--2222--2222---2--0---|----------------------------0---|
A|--------------------------------|3333--3333--3333--3333---3------|
E|--------------------------------|--------------------------------|
At this point you can once again play the one guitar part

G|--------------------------------|--------------------------------|
D|2222--2222--2222--2222---2--0---|----------------------------0---|
A|--------------------------------|3333--3333--3333--3333---3------|
E|--------------------------------|--------------------------------|

G|----------------------------0234|----------------------------0-24|
D|----------------------2-24-4----|----------------------2-24-4----|
A|---------0--2---3-35-5----------|---------0--2---3-35-5----------|
E|0--2--3-------3-----------------|0--2--3-------3-----------------|

G|-------------------|
D|-------------------|
A|--77---77---777----|
E|0----0----0--------|
Repeat this again until 7:27

G|--------------------------------|--------------------------------|
D|--------------------------------|--------------------------------|
A|--5566-7--5-7---5566-7--5-7-----|5-5675----------5-5675----------|
E|0-------------0-----------------|--------7-5-------------7-5-----|

G|--------------------------------|--------------------------------|
D|--------------------------------|--------------------------------|
A|--5566-7--5-7---5566-7--5-7-----|5-5675----------5-5675----------|
E|0-------------0-----------------|--------7-5-------------7-5-----|

G|--------------------------------|--------------------------------|
D|--------------------------------|--------------------------------|
A|--5566-7--5-7---5566-7--5-7-----|5-5675----------5-5675----------|
E|0-------------0-----------------|--------7-5-------------7-5-----|

G|--------------------------------|--------------------------------|
D|--------------------------------|--------------------------------|
A|--5566-7--5-7---5566-7--5-7-----|5-5675----------5-5675----------|
E|0-------------0-----------------|--------7-5-------------7-5-----|

G|----------------------------0234|----------------------------0-24|
D|----------------------2-24-4----|----------------------2-24-4----|
A|---------0--2---3-35-5----------|---------0-02---3-35-5----------|
E|0--2--3-------3-----------------|0-02-23-3-----3-----------------|


G|----------------------------0234|----------------------------0-24|
D|----------------------202424----|----------------------2-24-4----|
A|---------0--2---323535----------|---------0-02---3-35-5----------|
E|0--2--3-------3-----------------|0-02-23-3-----3-----------------|

G|--------------------------------|--------------------------------|
D|2222--2222--2222--2222---2--0---|----------------------------0---|
A|--------------------------------|3333--3333--3333--3333---3------|
E|--------------------------------|--------------------------------|

G|--------------------------------|--------------------------------|
D|2222--2222--2222--2222---2--0---|----------------------------0---|
A|--------------------------------|3333--3333--3333--3333---3------|
E|--------------------------------|--------------------------------|

G|--------------------------------|--------------------------------|
D|2222--2222--2222--2222---2--0---|----------------------------0---|
A|--------------------------------|3333--3333--3333--3333---3------|
E|--------------------------------|--------------------------------|

G|--------------------------------|--------------------------------|
D|2222--2222--2222--2222---2--0---|----------------------------0---|
A|--------------------------------|3333--3333--3333--3333---3------|
E|--------------------------------|--------------------------------|

G|-------------------|
D|-------------------|
A|--77---77---777----|
E|0----0----0--------|

Repeat until end

| / slide up
| \ slide down
| h hammer-on
| p pull-off
| ~ vibrato
| + harmonic
| x Mute note
===============================================================================





Comments


Popular Led Zeppelin tabs & chords
Im Gonna Crawl Bass Tabs
Tea For One 2 Bass Tabs
Heartbreaker Chords
Over The Hills And Far Away 1 Chords
The Crunge Drum Tabs
Houses Of The Holy 3 Tabs
Misty Mountain Hop 2 Tabs
Sick Again Tabs
Since I've Been Loving You 1 Tabs
The Girl I Love She Got Long Black Wavy Hair 4 Tabs


Song lyrics



↑ Back to top | Tablatures and chords are parodies/interpretations of the original songs. You may use it for private study, scholarship, research or language learning purposes only
© 2014 AZChords.com Contact us | Privacy policy | DMCA | Add/correct tabs | Request tabs | Top 50 tabs