» » »

How Do I Tabs (ver.3)

Artists:  A B C D E F G H I J K L M N O P Q R S T U V W X Y Z # 

How Do I Tabs (ver.3)

Leann Rimes
Rating:
0/5 (0 votes)

Hard to play? Try these video lessons and learn fast.
                (Live)
Just copy/paste this text to a blank document and re-size the text
to make it legible-sorry about the inconvenience this is a 100% accurate tab!

LeAnn Rimes
HOW DO I LIVE


Intro
|---------------------------------------------------------------------------|e
|---------------------------------------------------3--(3)------------------|B
|-0--3-(3)-----------0-------2----------0--2-----0--2--(2)--0-------------0-|G
|-3--3-(3)------0----2-----0---0-(0)--3-------0--0----------0--(2)-3--2-0-3-|D
|-3--2-(2)----0---3--3-----------(2)--------------------------------------3-|A
|-----------0-----------1---------------------------------------------------|E

Verse 1
How do I get through this night without you? If I had to live without you
|---------------------------------------------------------------------|e
|---------------------------------------------------------------------|B
|----------------0----------------------------------------------------|G
|-2-0-2------------3--3-------------0-------------0--2----------------|D
|-------3-(2)--2--------2-2--(2)-3----3-2---2-2-2------0-0--(0)-0-(0)-|A
|---------------------------------------------------------------------|E

what kind of life would that be? Oh, I___ I need you in my arms, need you to hold
|-------------------------------------------------------------------------------|e
|----------------------------------------------------------------------1--(1)---|B
|----------2--0---0-------------------0----------0-------------------0--------0-|G
|-----2--2------3---3-(3)--2-0-3--(3)---3--2-------3-3-3--3-3-3--(3)-----------3|D
|-0-3-----------------------------------------2---------------------------------|A
|-------------------------------------------------------------------------------|E

You're my world, my heart, my soul If you ever leave
|-------------------------------------------------|e
|-------------------------------------0-----------|B
|---------------------------------------0---------|G
|-2-0--2-0-2--(2)-0-3-2-(2)---2--3-3------3-2-(2)-|D
|-------------------------------------------------|A
|-------------------------------------------------|E

Baby, you would take away everything good in my life  Real in my life (2nd x only)
|-------------------------------------------------------------------------------|e
|-------------------------------------------------------------------------------|B
|-0---0----0---0---0--(0)--------------------0-----------------0----------------|G
|---3---3----3---3--------3-2-3-(3)---3-3--2---3-2-(3)--3-3--2--3-2--2--(2)-3-2-|D
|------------------------------------------------------------------------------3|A
|-------------------------------------------------------------------------------|E

Without you,  (Leads into Verse 2 - start back to beginning after this line)
|---------|e
|---------|B
|---------|G
|-2-0-2---|D
|-------3-|A
|---------|E

Chorus
And tell me now:  How do I live without you?  I want to know. ...Breathe w/out u
|-----------------------------------------------------------------------|e
|-----------------------------------------------------------------------|B
|-2-------------------2-2--2-------------------------2-2--2-------------|G
|----3--2-0-0-(0)---3------------------0--0---2-0--3------------------0-|D
|-----------------------------3-3-(3)-------0----------------3-3--(3)---|A
|-----------------------------------------------------------------------|E

if you ever go?_____ How do I ever, ever survive_____
|------------------------------------------------------|e
|-----------------------------------0--------0-1-3-(3)-|B
|----0---------------------------------2---2-----------|G
|-3----3--(2)--0-3-2-0-(0)---0-2-0---------------------|D
|------------------------------------------------------|A
|------------------------------------------------------|E

How do I, how do I, oh, how do I live?? (End chorus)
|-------------------------|e
|-------------------------|B
|-------------------------|G
|-0-2-0--0-2-0----0-2-0-0-|D
|---------------0---------|A
|-------------------------|E

If you ever leave,  baby you would take away everything__Need you with me
|----------------------------------------------------------------------------|e
|---------0------------------------------------------------------------------|B
|-----------0-----------0---0----0---0---0--(0)--------------------0---------|G
|-2--3-3------3-2-(2)-----3---3----3---3--------3-2-3-(3)---3-3--2---3-2-(2)-|D
|----------------------------------------------------------------------------|A
|----------------------------------------------------------------------------|E

Baby cause you know that you're everything good in my life____
|---------------------------------------------------------------|e
|---------------------------------------------------------------|B
|-0---0----0---0-0--(0)-------------------0---------------------|G
|---3---3----3----------3-2-3-(3)--3-3--2---3-2--(2)--(2)-3-2---|D
|-------------------------------------------------------------3-|A
|---------------------------------------------------------------|E

And Tell me now:
|-------------------|e
|-------------------|B
|-2-----------------|G
|----3--2-0-2-0-(0)-|D
|-------------------|A
|-------------------|E

Repeat Chorus and repeat last note every few seconds, fading out
            
Hard to play? Try these video lessons and learn fast. | Correct




comments powered by Disqus
↑ Back to top | Tablatures and chords are parodies/interpretations of the original songs. You may use it for private study, scholarship, research or language learning purposes only