» » »

Leann Rimes, How Do I Tabs (ver.1)

Artists:  A B C D E F G H I J K L M N O P Q R S T U V W X Y Z # 

How Do I Tabs (ver.1)

Leann Rimes Tabs
Rating:
0/5 (0 votes)
Hard to play? Try these video lessons and learn fast.
                (Live)
leann rimes, how do i live.
  



Intro Riff: 

|----------------------------------10-9-7-7^9--------
|-------------------10/12\10------------------10-----
|-----------7---7---9-/11\9-------------------------- Repeat Once
|-------7-9---9--------------------------------------
|----------------------------------------------------
|----------------------------------------------------


Midway Solo:

|-------------------------------------14-14-14\------
|---10br\----11b-11b-11b-11b-------------------------
|------------11b-11b-11b-11b-9-----------------------
|------------------------------(11)------------------
|----------------------------------------------------
|----------------------------------------------------

                            Big Finish!

|---12\14-14-14-14-14\----/14-16^17/19-19b-19b\------
|----------------------------------------------------
|----------------------------------------------------
|----------------------------------------------------
|----------------------------------------------------
|---------------------------------------------------- 

 
            

comments powered by Disqus
↑ Back to top | Leann Rimes Tabs for How Do I. Lyrics for acoustic guitar and electric guitar. Tablatures and chords are parodies/interpretations of the original songs. You may use it for private study, scholarship, research or language learning purposes only