» » »

Lazarus Ad, Thou Shall Not Fear Tabs (ver.1)

Artists:  A B C D E F G H I J K L M N O P Q R S T U V W X Y Z # 

Thou Shall Not Fear Tabs (ver.1)

Lazarus Ad Tabs
 Rating:
4/5 (5 votes)
Thou Shall Not Fear lessons Tabs too difficult? Try these video lessons and learn fast
                All credit goes to the original author of that Guitar Pro tab.

Drop D Tuning: D, A, D, G, B, E

Tablature Legend
----------------
L - tied note
x - dead note
g - grace note
(n) - ghost note
> - accentuded note
NH - natural harmonic
AH - artificial harmonic
TH - tapped harmonic
SH - semi harmonic
PH - pitch harmonic
h - hammer on
p - pull off
b - bend
br - bendRelease
pb - preBend
pbr - preBendRelease
brb - bendReleaseBend
\n/ - tremolo bar dip
\n - tremolo bar dive
-/n - tremolo bar Release up
/n\ - tremolo bar inverted dip
/n - tremolo bar return
-\n - tremolo bar Release down
S - shift slide
s - legato slide
/ -  slide into from below or out of upwards
\ -  slide into from above or out of downwards
~ - vibrato
W - wide vibrato
tr - trill
TP - tremolo picking
T - tapping
S - slap
P - pop
< - fade in
^ - brush up
v - brush down

Guitar 1

               W                   H        H           W                 
E||-------||--------------------|--------------------|-------------------|
B||-------||--------------------|--------------------|-------------------|
G||-------||*-------------------|--------------------|-------------------|
D||-------||*--0----------------|--L-----------------|--0----------------|
A||-------||---0----------------|--L-----------------|--0----------------|
D||-------||---0----------------|--L-----------------|--0----------------|


                            GO!                                     
                                           PM PM       PM PM        
  H        H             E  E        E  E  S  S  E  E  S  S  E  E   
---------------------||---------||---------------------------------|
---------------------||---------||---------------------------------|
--------------------*||---------||*--------------------------------|
--L-----------------*||--0------||*--7--7--------8--8--------7--7--|
--L------------------||--0------||---5--5--------5--5--------5--5--|
--L------------------||--0------||---------0--0--------0--0--------|


  PM PM       PM PM                        PM PM       PM PM        
  S  S  E  E  S  S   E   E  E  E     E  E  S  S  E  E  S  S  E  E   
----------------------------------|--------------------------------|
----------------------------------|--------------------------------|
----------------------------------|--------------------------------|
--------7--7--------10--10--8--8--|--7--7--------8--8--------7--7--|
--------4--4---------8---8--6--6--|--5--5--------5--5--------5--5--|
--0--0--------0--0----------------|--------0--0--------0--0--------|


  PM PM       PM PM                  
  S  S  E  E  S  S   E   E  E  E     
-----------------------------------||
-----------------------------------||
----------------------------------*||
--------7--7--------10--10--8--8--*||
--------4--4---------8---8--6--6---||
--0--0--------0--0-----------------||


  solo goes here...can't figure out the notes                             
                                                 PM PM       PM PM        
  E                                           E  S  S  E  E  S  S  E  E   
-------------------------------------------------------------------------|
-------------------------------------------------------------------------|
-------------------------------------------------------------------------|
--7-------------------------------------------7--------8--8--------7--7--|
--5-------------------------------------------5--------5--5--------5--5--|
-------------------------------------------------0--0--------0--0--------|


  PM PM       PM PM                        PM PM       PM PM        
  S  S  E  E  S  S   E   E  E  E     E  E  S  S  E  E  S  S  E  E   
----------------------------------|--------------------------------|
----------------------------------|--------------------------------|
----------------------------------|--------------------------------|
--------7--7--------10--10--8--8--|--7--7--------8--8--------7--7--|
--------4--4---------8---8--6--6--|--5--5--------5--5--------5--5--|
--0--0--------0--0----------------|--------0--0--------0--0--------|


  PM PM       PM PM                        PM PM       PM PM        
  S  S  E  E  S  S   E   E  E  E     E  E  S  S  E  E  S  S  E  E   
----------------------------------|--------------------------------|
----------------------------------|--------------------------------|
----------------------------------|--------------------------------|
--------7--7--------10--10--8--8--|--7--7--------8--8--------7--7--|
--------4--4---------8---8--6--6--|--5--5--------5--5--------5--5--|
--0--0--------0--0----------------|--------0--0--------0--0--------|


  PM PM       PM PM                        PM PM       PM PM        
  S  S  E  E  S  S   E   E  E  E     E  E  S  S  E  E  S  S  E  E   
----------------------------------|--------------------------------|
----------------------------------|--------------------------------|
----------------------------------|--------------------------------|
--------7--7--------10--10--8--8--|--7--7--------8--8--------7--7--|
--------4--4---------8---8--6--6--|--5--5--------5--5--------5--5--|
--0--0--------0--0----------------|--------0--0--------0--0--------|


  PM PM       PM PM                                    
  S  S  E  E  S  S   E   E  E  E     W                 
----------------------------------|-------------------|
----------------------------------|-------------------|
----------------------------------|-------------------|
--------7--7--------10--10--8--8--|--0----------------|
--------4--4---------8---8--6--6--|--0----------------|
--0--0--------0--0----------------|--0----------------|


  TP TP TP TP TP TP TP TP    TP TP TP TP TP TP TP TP           
  E  E  E  E  E  E  E  E     E  E  E  E  E  E  E  E     E  E   
--------------------------|--------------------------|--------|
--------------------------|--------------------------|--------|
--------------------------|--------------------------|--------|
--------------------------|--------------------------|--------|
--------------------------|--------------------------|--0-----|
--0--0--0--0--0--3--6--3--|--0--0--0--0--0--3--6--3--|--0-----|


    TP TP TP TP TP TP TP TP    TP TP TP TP TP TP TP TP             
    E  E  E  E  E  E  E  E     E  E  E  E  E  E  E  E       E  E   
|---------------------------|---------------------------||--------|
|---------------------------|---------------------------||--------|
|*--------------------------|--------------------------*||--------|
|*--------------------------|--------------------------*||--------|
|---------------------------|---------------------------||--0-----|
|---0--0--0--0--0--3--6--3--|--0--0--0--0--0--3--6--3---||--0-----|


    TP TP TP TP TP TP TP TP    TP TP TP TP TP TP TP TP    
    E  E  E  E  E  E  E  E     E  E  E  E  E  E  E  E     
|---------------------------|---------------------------||
|---------------------------|---------------------------||
|*--------------------------|--------------------------*||
|*--------------------------|--------------------------*||
|---------------------------|---------------------------||
|---0--0--0--0--0--3--6--3--|--0--0--0--0--0--3--6--3---||


  S S S S S S S S S S S S S S S S    S S S S S S S S S S S S S S S S  
----------------------------------|----------------------------------|
----------------------------------|----------------------------------|
----------------------------------|----------------------------------|
----------------------------------|----------------------------------|
--0---0---0---0---0---3---6---3---|--0---0---0---0---0---3---6---3---|
--0---0---0---0---0---3---6---3---|--0---0---0---0---0---3---6---3---|


  S S S S S S S S S S S S S S S S    S S S S S S S S S S S S S S S S  
----------------------------------|----------------------------------|
----------------------------------|----------------------------------|
----------------------------------|----------------------------------|
----------------------------------|----------------------------------|
--0---0---0---0---0---3---6---3---|--0---0---0---0---0---3---6---3---|
--0---0---0---0---0---3---6---3---|--0---0---0---0---0---3---6---3---|


  S S S S S S S S S S S S S S S S    S S S S S S S S S S S S S S S S  
----------------------------------|----------------------------------|
----------------------------------|----------------------------------|
----------------------------------|----------------------------------|
----------------------------------|----------------------------------|
--0---0---0---0---0---3---6---3---|--0---0---0---0---0---3---6---3---|
--0---0---0---0---0---3---6---3---|--0---0---0---0---0---3---6---3---|


    im not sure if this is 100% correct                                     
    PM                                      PM   PM PM     PM   PM          
    S                                   S S S  S S  S  S S S  S S  S S S S  
|--------------------------------------------------------------------------|
|--------------------------------------------------------------------------|
|*-------------------------------------------------------------------------|
|*-------------------------------------------------------------------------|
|---------------------------------------2-3----5-------2-3----5----5-6-5-6-|
|---0-----------------------------------2-3-0--5-0--0--2-3-0--5-0--5-6-5-6-|


  PM     PM   PM PM     PM   PM          
  S  S S S  S S  S  S S S  S S  S S S S  
----------------------------------------|
----------------------------------------|
----------------------------------------|
----------------------------------------|
-----2-3----5-------2-3----5----6-L-5-L-|
--0--2-3-0--5-0--0--2-3-0--5-0--6-L-5-L-|


  PM     PM   PM PM     PM   PM          
  S  S S S  S S  S  S S S  S S  S S S S  
----------------------------------------|
----------------------------------------|
----------------------------------------|
----------------------------------------|
-----2-3----5-------2-3----5----5-6-5-6-|
--0--2-3-0--5-0--0--2-3-0--5-0--5-6-5-6-|


  PM     PM   PM PM     PM   PM                                               
  S  S S S  S S  S  S S S  S S  S S S S      S S S S S S S S S S S S S S S S  
-----------------------------------------||----------------------------------|
-----------------------------------------||----------------------------------|
----------------------------------------*||----------------------------------|
----------------------------------------*||----------------------------------|
-----2-3----5-------2-3----5----5-3------||--0---0---0---0---0---3---6---3---|
--0--2-3-0--5-0--0--2-3-0--5-0------5-3--||--0---0---0---0---0---3---6---3---|


    TP TP TP TP TP TP TP TP    TP TP TP TP TP TP TP TP             
    E  E  E  E  E  E  E  E     E  E  E  E  E  E  E  E       E  E   
|---------------------------|---------------------------||--------|
|---------------------------|---------------------------||--------|
|*--------------------------|--------------------------*||--------|
|*--------------------------|--------------------------*||--------|
|---------------------------|---------------------------||--0-----|
|---0--0--0--0--0--3--6--3--|--0--0--0--0--0--3--6--3---||--0-----|


    S S S S S S S S S S S S S S S S    S S S S S S S S S S S S S S S S    
|-----------------------------------|-----------------------------------||
|-----------------------------------|-----------------------------------||
|*----------------------------------|----------------------------------*||
|*----------------------------------|----------------------------------*||
|---0---0---0---0---0---3---6---3---|--0---0---0---0---0---3---6---3----||
|---0---0---0---0---0---3---6---3---|--0---0---0---0---0---3---6---3----||


   PM     PM   PM PM     PM   PM          
   S  S S S  S S  S  S S S  S S  S S S S  
-----------------------------------------|
-----------------------------------------|
*----------------------------------------|
*----------------------------------------|
------2-3----5-------2-3----5----5-6-5-6-|
---0--2-3-0--5-0--0--2-3-0--5-0--5-6-5-6-|


  PM     PM   PM PM     PM   PM          
  S  S S S  S S  S  S S S  S S  S S S S  
----------------------------------------|
----------------------------------------|
----------------------------------------|
----------------------------------------|
-----2-3----5-------2-3----5----6-L-5-L-|
--0--2-3-0--5-0--0--2-3-0--5-0--6-L-5-L-|


  PM     PM   PM PM     PM   PM          
  S  S S S  S S  S  S S S  S S  S S S S  
----------------------------------------|
----------------------------------------|
----------------------------------------|
----------------------------------------|
-----2-3----5-------2-3----5----5-6-5-6-|
--0--2-3-0--5-0--0--2-3-0--5-0--5-6-5-6-|


  PM     PM   PM PM     PM   PM            
  S  S S S  S S  S  S S S  S S  S S S S    
-----------------------------------------||
-----------------------------------------||
----------------------------------------*||
----------------------------------------*||
-----2-3----5-------2-3----5----5-3------||
--0--2-3-0--5-0--0--2-3-0--5-0------5-3--||
            
Submit corrections

comments powered by Disqus
↑ Back to top | Lazarus Ad Tabs for Thou Shall Not Fear. Lyrics for acoustic guitar and electric guitar. Tablatures and chords are parodies/interpretations of the original songs. You may use it for private study, scholarship, research or language learning purposes only