» » »

Lazarus Ad, Thou Shall Not Fear Tabs (ver.2)

Artists:  A B C D E F G H I J K L M N O P Q R S T U V W X Y Z # 

Thou Shall Not Fear Tabs (ver.2)

Lazarus Ad Tabs
 Rating:
3.4/5 (5 votes)
Thou Shall Not Fear lessons Tabs too difficult? Try these video lessons and learn fast
                (Intro)
Guitar 1:
Eb-----------------------------|
Bb-----------------------------|
Gb-----------------------------|
Db-7-7--8-8--7-7--7-7--10108-8-|
Ab-5-5--5-5--5-5--4-4--8-8-6-6-|
Db-0-0--0-0--0-0--0-0--0-0-0-0-|

Eb-----------------------------|
Bb-----------------------------|
Gb-----------------------------|
Db-7-7--8-8--7-7--7-7--10108-8-|
Ab-5-5--5-5--5-5--4-4--8-8-6-6-|
Db-0-0--0-0--0-0--0-0--0-0-0-0-|

Guitar 2:
Eb---------------------------|
Bb---------------------------|
Gb---------------------------|
Db-7~~~~~~~~~~~~~~~~~~~10--8-|
Ab-5~~~~~~~~~~~~~~~~~~~8---6-|
Db-0~~~~~~~~~~~~~~~~~~~0---0-|

Eb-----------------------------|
Bb-----------------------------|
Gb-----------------------------|
Db-7~~~~~~~~~~~~~~~~~~~10108-8-|
Ab-5~~~~~~~~~~~~~~~~~~~8-8-6-6-|
Db-0~~~~~~~~~~~~~~~~~~~0-0-0-0-|

Then,
Both Guitars:
Eb-----------------------------|
Bb-----------------------------|
Gb-----------------------------|
Db-7-7--8-8--7-7--7-7--10108-8-|
Ab-5-5--5-5--5-5--4-4--8-8-6-6-|
Db-0-0--0-0--0-0--0-0--0-0-0-0-|

Then, for the verse,
Eb------------------|
Bb------------------|
Gb------------------|  a few times
Db------------------|
Ab------------------|
Db-0000000000336633-|

The last time,
Eb------------------|
Bb------------------|
Gb------------------|
Db----------------0-|
Ab----------------0-|
Db-0000000000336630-|

After that,
Eb-----------------------------|
Bb-----------------------------|
Gb-----------------------------|
Db-0-0-0-0-0-3-6-3-------------| as many times as the other one
Ab-0-0-0-0-0-3-6-3-------------|
Db-0-0-0-0-0-3-6-3-------------|

Then,
Eb-----------------------------|
Bb-----------------------------|
Gb-----------------------------|
Db-0-0-0-0-0-3-6-30------------|
Ab-0-0-0-0-0-3-6-30------------|
Db-0-0-0-0-0-3-6-30------------|

Then,
Eb------------------------------------------------------------|
Bb------------------------------------------------------------|
Gb------------------------------------------------------------|
Db---2-3---5-----2-3---5---5-6-5-6----2-3---5---2-3---6~~~5~~-|
Ab---2-3---5-----2-3---5---5-6-5-6----2-3---5---2-3---6~~~5~~-|
Db-0-2-3-0-5-0-0-2-3-0-5-0-5-6-5-6--0-2-3-0-5-0-2-3-0-6~~~5~~-|

Eb------------------------------------------------------------|
Bb------------------------------------------------------------|
Gb------------------------------------------------------------|
Db---2-3---5-----2-3---5---5-6-5-6----2-3---5---2-3-----------|
Ab---2-3---5-----2-3---5---5-6-5-6----2-3---5---2-3---5-3-----|
Db-0-2-3-0-5-0-0-2-3-0-5-0-5-6-5-6--0-2-3-0-5-0-2-3-0-----5-3-|

thats the best ive got so far, still  workin on the rest
            
Submit corrections

comments powered by Disqus
↑ Back to top | Lazarus Ad Tabs for Thou Shall Not Fear. Lyrics for acoustic guitar and electric guitar. Tablatures and chords are parodies/interpretations of the original songs. You may use it for private study, scholarship, research or language learning purposes only