» » »

Porno & Snuff Films Bass tabs (ver.1)

Artists:  A B C D E F G H I J K L M N O P Q R S T U V W X Y Z # 

Porno & Snuff Films Bass tabs (ver.1)

Lawrence Arms
Rating:
0/5 (0 votes)

Hard to play? Try these video lessons and learn fast.
                -------------------------------------------------------------------------------
			  Porno and Snuff Films - The Lawrence Arms
-------------------------------------------------------------------------------


Tuning: standard

  Intro
G|----------------------------------|----------------------------------|
D|----------------------------------|----------------------------------|
A|--------------235-33333335-5332233|--------------235-33333333-322--33|
E|-3-3333333333---------------------|-3-3333333333-----------------55--|

  Intro cont.
D|----------------------------------|----------------------------------|
A|----------------------------------|----------------------------------|
E|--------------235-33333335-5332233|---------------235-3355xx55xx5~xx5|
G|-3-3333333333---------------------|-3-33333333333--------------------|
                                      palm mute the 3's>..   
  Verse
G|---------------------------------------------|
D|-------------------------------5~--5~--5~--5~|
A|-----------------------------3~--3~--3~--3~--| 2x
E|-3333333333333333333333333333----------------|
  Verse cont.
G|----------------------------------|
D|----------------------------------|
A|-5555555555555555-3333333333333333| 2x
E|----------------------------------|

  Chorus
G|----------------------------------|------------------------------------|
D|----------------------------------|------------------------------------|
A|--------------235-3-33333333333333|----------------235-3-33333333333355|
E|-3-3333333333---------------------|-3-333333333333---------------------|
   
  Verse (same as before)
  Chorus
G|----------------------------------|------------------------------------|
D|----------------------------------|------------------------------------|
A|--------------235-3-33333333333333|----------------235-3-33333333332233|
E|-3-3333333333---------------------|-3-333333333333---------------------|
  
  Bridge
G|--------------------|    |----------------|
D|--------------------|    |--55--55--55----|
A|-----3-333----5-555-| 6x |33--33--33--3~55| 1x
E|-33-3-----33-3------|    |----------------|

 (Guitar alone)
  Intro
G|----------------------------------|----------------------------------|
D|----------------------------------|----------------------------------|
A|--------------235-33333335-5332233|--------------235-33333333-322--33|
E|-3-3333333333---------------------|-3-3333333333-----------------55--|
  Intro cont.
D|----------------------------------|----------------------------------|
A|----------------------------------|----------------------------------|
E|--------------235-33333335-5332233|---------------235-3333333-322--33|
G|-3-3333333333---------------------|-3-33333333333----------------55--|

  Outro
G|---------------|---------------|---------------|----------------|
D|---------------|-----------55--|---------------|----------------|
A|---555-3-333333|---555-3-33--33|---555-3-333333|----33332222----|
E|3-3------------|3-3------------|3-3------------|3333--------5555|
  Outro cont.
G|----------|
D|----------|
A|----------|
E|333333333~|
  
I just corrected this as of 2/11/06. I'm almost 100% on it, except
the little fill things during the intro and chorus, but the ones I
have out sound fine.
            
Hard to play? Try these video lessons and learn fast. | Correct




comments powered by Disqus
↑ Back to top | Tablatures and chords are parodies/interpretations of the original songs. You may use it for private study, scholarship, research or language learning purposes only