>
 >
Porno And Snuff Films 1

Porno And Snuff Films 1 Bass Tabs

Lawrence Arms - Porno And Snuff Films 1 chords, tabs, tablatures, lyrics

Guitar lessons | Add/correct | Request | Top 50 tabs Artists:  A B C D E F G H I J K L M N O P Q R S T U V W X Y Z 0-9

Porno And Snuff Films 1 Bass Tabs – Lawrence Arms

CD, Sheet music, Poster

Do you like Porno And Snuff Films 1? Share with your friends now
Bass TabsBass Tabs v2TabsTabs v2
Intro
G|-----------------------------------------
D|-----------------------------------------
A|----------22-33-55-3333333-555-33-22-33-- 
E|-333333333-------------------------------

G|---------------------------------------- 
D|---------------------------------------- 
A|----------22-33-55-3333333333-22-00-22-- 
E|-333333333------------------------------

G|-----------------------------------------
D|-----------------------------------------
A|----------22-33-55-3333333-555-33-22-33-- 
E|-333333333-------------------------------

G|------------------------------------------ 
D|------------------------------------------
A|----------22-33-55-xx-33-xx-33-xx-3-xx-3-- 
E|-333333333--------------------------------

Verse x2
G|-----------------------------------------------
D|-----------------------------------------------
A|----------------------------33333333-33333333--
E|-33333333-33333333-33333333--------------------

Pre Chorus
G|--------------------------------------
D|--------------------------------------
A|-55555555-55555555-33333333-33333333-- 
E|--------------------------------------
"let's drown in this basement till it's filled to the brim..." 

Chorus x2
G|--------------------------------------
D|--------------------------------------
A|-------------------33333333-33333333-- 
E|-33333333-33333333--------------------
"do you like, do you like, do you like, do you like my party tricks?" 

Pre Verse (hit D twice to end first chorus) 
G|------
D|-0-0--
A|------
E|------

Verse x2
G|-----------------------------------------------
D|-----------------------------------------------
A|----------------------------33333333-33333333--
E|-33333333-33333333-33333333--------------------

Pre Chorus x2
G|--------------------------------------
D|--------------------------------------
A|-55555555-55555555-33333333-33333333-- 
E|--------------------------------------

Chorus x2
G|--------------------------------------
D|--------------------------------------
A|-------------------33333333-33333333-- 
E|-33333333-33333333--------------------

Bridge x7
G|-------------------------- 
D|-------------------------- 
A|-------3-3-3-------5-5-5-- 
E|-1-1-1-------3-3-3-------- 
"there's no good taste, in this art space, 
straight porno and snuff films, i should 
be disgraced" 

Chorus 
G|-----------------------------------------
D|-----------------------------------------
A|----------22-33-55-3333333-555-33-22-33-- 
E|-333333333-------------------------------

G|---------------------------------------- 
D|---------------------------------------- 
A|----------22-33-55-3333333333-22-00-22-- 
E|-333333333------------------------------

G|-----------------------------------------
D|-----------------------------------------
A|----------22-33-55-3333333-555-33-22-33-- 
E|-333333333-------------------------------

G|-----------------------------------------
D|-----------------------------------------
A|----------22-33-55-3333333-555-33-22-33-- 
E|-333333333-------------------------------

Outro
G|-------------------------------------------- 
D|-----------------------------55-------------
A|-----55-33333333--55-333333----55-33333333-- 
E|-33-------------33---------33---------------
"well do you like my body tricks?..." 

G|------------------------ 
D|------------------------ 
A|---33-55-333------------ 
E|-33----------333333333-- 
"I trick out clicking sticks to get my kicks"





Comments


Popular Lawrence Arms tabs & chords
Alert The Audience! Bass Tabs
Jumping The Shark Bass Tabs
Porno & Snuff Films Bass Tabs
Demons Chords
Faintly Falling Ashes Chords
Old Mexico Way Chords
There's No Place Like A Stranger's Floor Chords
Alert The Audience! Tabs
Criminal Ukulele
Warped Summer Extravaganza Ukulele


Song lyrics



↑ Back to top | Tablatures and chords are parodies/interpretations of the original songs. You may use it for private study, scholarship, research or language learning purposes only
© 2014 AZChords.com Contact us | Privacy policy | DMCA | Add/correct tabs | Request tabs | Top 50 tabs