» » »

Lawrence Arms, 100 Resolutions Tabs (ver.2)

Artists:  A B C D E F G H I J K L M N O P Q R S T U V W X Y Z # 

100 Resolutions Tabs (ver.2)

Lawrence Arms Tabs
Rating:
0/5 (0 votes)
100 Resolutions lessons Tabs too difficult? Try these video lessons and learn fast
                One Hundred Resolutions (Acoustic)
Sundowner
Lawrence Arms Cover.

Intro [0:00-0:12]
e-4---4---4-4-4-4---4-4-4-4-4-4-4-|-4---4---4-4-4-4---2-2-2-2-2-2-4-|
B-4---4---4-4-4-4---4-4-4-4-4-4-4-|-4---4---4-4-4-4---0-0-0-0-0-0-4-|
G-4---4---4-4-4-4---4-4-4-4-4-4-4-|-4---4---4-4-4-4---3-3-3-3-3-3-4-|
D-2---2---2-4-6-6---6-6-6-6-6-4-2-|-2---2---2-2-4-6---4-4-4-4-4-4-2-|
A---------------------------------|---------------------------------|
E---------------------------------|---------------------------------|

  1 + 2 + 3 + 4 + 1 + 2 + 3 + 4 +
e-4---4---4-4-4-4---4-4-4-4-4-4-4-|-------------------------2-2-x---|
B-4---4---4-4-4-4---4-4-4-4-4-4-4-|-0---0---0---0---0---0---0-0-x---|
G-4---4---4-4-4-4---4-4-4-4-4-4-4-|-3-3-3-3-3-3-3-3-3-3-3-3-3-3-x-4-|
D-2---2---2-4-6-6---6-6-6-6-6-6-6-|-4---4---4---4---4---4---4-4-x-6-|
A---------------------------------|-------------------------------6-|
E---------------------------------|-------------------------------4-|

play every eighth note.  i will not mark them all!

Verse A (2x) [0:13-0:38]
e---------------------------------|-0-----------------------2-2-x---|
B---------------------------------|-4-----------------------0-0-x---|
G-4-------------------------------|-4-----------------------3-3-x-4-|
D-6-------------------------------|-2-----------------------4-4-x-6-|
A-6-------------------------------|-------------------------------6-|
E-4-------------------------------|-------------------------------4-|

  1 + 2 + 3 + 4 + 1 + 2 + 3 + 4 +
e---------------------------------|---------------------------------|
B---------------4-----------------|-0---------------0---------------|
G-4-------------4-----------------|-1---------------3---------------|
D-6-------------4-----------------|-2---------------4---------------|
A-6-------------2-----------------|-2---------------4---------------|
E-4-------------------------------|-0---------------2---------------|

Verse B [0:39-0:51]
e-0-------------------------------|---------------------------------|
B-4-------------------------------|---------------------------------|
G-4-------------------------------|-4-------------------------------|
D-2-------------------------------|-6-------------------------------|
A---------------------------------|-6-------------------------------|
E---------------------------------|-4-------------------------------|

e-2-------------------------------|---------------------------------|
B-0-------------------------------|-0-0-0-0-0-0-0-0-0-0-0-0-0-0-0-0-|
G-3-------------------------------|-1-1-1-1-1-1-1-x-x-x-x-x-1-1-x-x-|
D-4-------------------------------|-2-2-2-2-2-2-2-4-4-4-4-4-2-2-4-4-|
A---------------------------------|-2-2-2-2-2-2-2-2-2-2-2-2-2-2-2-2-|
E---------------------------------|-0-0-0-0-0-0-0-0-0-0-0-0-0-0-0-0-|


Chorus A (2x) [0:52-1:05]
e---------------------------------|---------------------------------|
B-4-------------------------------|-0-0-0-0-0-0-0-0-0-0-0-0-0-0-0-0-|
G-4-------------------------------|-1-1-1-1-1-1-1-x-x-x-x-x-1-1-x-x-|
D-4-------------------------------|-2-2-2-2-2-2-2-4-4-4-4-4-2-2-4-4-|
A-2-------------------------------|-2-2-2-2-2-2-2-2-2-2-2-2-2-2-2-2-|
E---------------------------------|-0-0-0-0-0-0-0-0-0-0-0-0-0-0-0-0-|

Chorus B [1:06-1:14]
  1 + 2 + 3 + 4 + 1 + 2 + 3 + 4 +
e---------------------------------|---------2-2-x-0-----------------|
B-4-------------4-----------------|---------0-0-x-0-----------------|
G-4-------------4-----------------|-4-------3-3-x-1-----------------|
D-4-------------4-----------------|-6-------4-4-x-2-----------------|
A-2-------------1-----------------|-6-------4-4-x-2-----------------|
E---------------------------------|-4-------------0-----------------|

e-----------------2------------------|
B-----------------0------------------|
G-1---------------3------------------|
D-2---------------4------------------|
A-2---------------4------------------|
E-0----------------------------------|

[1:15-1:27] Intro
[1:28-2:06] Verse
[2:07-2:28] Chorus

Bridge A (2x) [2:29-2:41]
e---------------------------------|---------------------------------|
B-4-4-4-4-4-4-4-4-2-2-2-2-2-2-2-2-|-0-0-0-0-0-0-0-0-0-0-0-0-0-0-0-0-|
G-4-4-4-4-4-4-4-4-3-3-3-3-3-3-3-3-|-1-1-1-1-3-3-3-3-1-1-1-1-1-1-1-1-|
D---------------------------------|---------4-4-4-4-2-2-2-2-2-2-2-2-|
A---------------------------------|---------------------------------|
E---------------------------------|---------------------------------|

Bridge B (2x) [2:42-2:54]
Might be a good idea to mute the high E string here.

e-----------------2---------------|-4---------------0---------------|
B-4---------------0---------------|-4---------------0---------------|
G-4---------------4---------------|-4---------------1---------------|
D-4---------------3---------------|-6---------------2---------------|
A-2---------------2---------------|-6---------------2---------------|
E-----------------2---------------|-4---------------0---------------|

Bridge C [2:55-3:01]
e-----------------2---------------|-0-------------------------------|
B-4---------------0---------------|-0-------------------------------|
G-4---------------4---------------|-1-------------------------------|
D-4---------------3---------------|-2-------------------------------|
A-2---------------2---------------|-2-------------------------------|
E-----------------2---------------|-0-------------------------------|

[3:02-3:21] Repeat Bridge

Outro A [3:22-3:46]
Use thumb on the 6th string for the F#add11 chord

                    F#add11
e---|-0-|-4----------2------------|---------------------------------|
B-4-|-0-|-4----------0------------|-0-0-0-0-0-0-0-0-0-0-0-0-0-0-0-0-|
G-4-|-1-|-4----------3------------|-1-1-1-1-1-1-1-1-1-1-x-x-1-1-x-x-|
D-4-|-2-|-6----------4------------|-2-2-2-2-2-2-2-2-2-2-4-4-2-2-4-4-|
A-2-|-2-|-6----------4------------|-2-2-2-2-2-2-2-2-2-2-2-2-2-2-2-2-|
E---|-0-|-4----------2------------|-0-0-0-0-0-0-0-0-0-0-0-0-0-0-0-0-|

e---|-0-|-4----------2------------|
B-4-|-0-|-4----------0------------|
G-4-|-1-|-4----------3------------|
D-4-|-2-|-6----------4------------|
A-2-|-2-|-6----------4------------|
E---|-0-|-4----------2------------|

"Rhy -  y- y  -  y        - y-y-y-|ymes"
e-0---------------------------2-2-|
B-0---------------------------0-0-|
G-1---------------------------3-3-|
D-2---------------------------4-4-|
A-2---------------------------4-4-|
E-0---------------------------2-2-|

[3:47-4:00] First 4 Bars of Intro (2x)

Ending [4:01-4:29]
e-0-|-2-|-4-|-~-|-0-|-2-|-2-|-0-|-0-|-2-|-4-2-|-0-|
B-0-|-0-|-4-|-~-|-0-|-0-|-4-|-0-|-0-|-0-|-4-0-|-0-|
G-1-|-3-|-4-|-~-|-1-|-3-|-4-|-1-|-1-|-3-|-4-3-|-1-|
D-2-|-4-|-6-|-~-|-2-|-4-|-4-|-2-|-2-|-4-|-6-4-|-2-|
A-2-|-4-|-6-|-~-|-2-|-4-|-2-|-2-|-2-|-4-|-6-4-|-2-|
E-0-|-2-|-4-|-~-|-0-|-2-|---|-0-|-0-|-2-|-4-2-|-0-|

e-0---0----------2---7--|
B-0-----0-0----0-----7--|
G-0h1-----1-/3-----3-8--|
D-2-------2-/4-------9--|
A-2-------2-/4-------9--|
E-0---------/2-------7--|
            

comments powered by Disqus
↑ Back to top | Lawrence Arms Tabs for 100 Resolutions. Lyrics for acoustic guitar and electric guitar. Tablatures and chords are parodies/interpretations of the original songs. You may use it for private study, scholarship, research or language learning purposes only