» » »

Lawrence Arms, 100 Resolutions Tabs (ver.1)

Artists:  A B C D E F G H I J K L M N O P Q R S T U V W X Y Z # 

100 Resolutions Tabs (ver.1)

Lawrence Arms Tabs
Rating:
4/5 (4 votes)
100 Resolutions lessons Tabs too difficult? Try these video lessons and learn fast
                -----------------------------------------------------------------------------
                    100 Resolutions - The Lawrence Arms
-----------------------------------------------------------------------------

Tuning: E A D G B E

INTRO (0:00 - 0:09)
e-00----------00--------------00------------------------|
b-00----------00--------------00------------------------|
g-11----------11--------------11------------------------|
d-22-4-666666-22-4-6-44444444-22-4-666666-44444444444444|
a-22-4-666666-22-4-6-44444444-22-4-666666-44444444444444|
e-00-2-444444-00-2-4-22222222-00-2-444444-22222222222222|
pm                                        ..............

VERSE (0:09 - 0:29)
e----------------------0000000000000000-----------------------------|
b----------------------0000000000000000-----------------------------|
g----------------------1111111111111111------------44444------------|
d-444-|666666666666666-2222222222222222-444-|66666-44444-22222-44444|
a-444-|666666666666666-2222222222222222-444-|66666-22222-22222-44444|
e-222-|444444444444444-0000000000000000-222-|44444-------00000-22222|

INTERLUDE (0:29 - 0:37)
e------------------------------------------------------------|
b------------------------------------------------------------|
g------------------------------------------------------------|
d-22222222222222-66666666666666-44444444444444-22222222222222|
a-22222222222222-66666666666666-44444444444444-22222222222222|
e-00000000000000-44444444444444-22222222222222-00000000000000|

REFRAIN (0:37 - 0:54)
e-----------------------------------------------------------------|
b-----------------------------------------------------------------|
g-44444-33333-44444-33333-----44444-33333-------------------------|
d-44444-44444-22222-22222-(2x)44444-44444-66-44-222222-22222-44444|
a-22222-22222-22222-22222-----22222-22222-66-44-222222-22222-44444|
e-------------00000-00000-----------------44-22-000000-00000-22222|

BRIDGE (0:54 - 1:03)
e-00----------00--------------00----------22222222222222|
b-00----------00--------------00----------22222222222222|
g-11----------11--------------11----------33333333333333|
d-22-4-666666-22-4-6-44444444-22-4-666666-44444444444444|
a-22-4-666666-22-4-6-44444444-22-4-666666-44444444444444|
e-00-2-444444-00-2-4-22222222-00-2-444444-22222222222222|

VERSE (1:03 - 1:23)
e----------------------0000000000000000-----------------------------|
b----------------------0000000000000000-----------------------------|
g----------------------1111111111111111------------44444------------|
d-444-|666666666666666-2222222222222222-444-|66666-44444-22222-44444|
a-444-|666666666666666-2222222222222222-444-|66666-22222-22222-44444|
e-222-|444444444444444-0000000000000000-222-|44444-------00000-22222|

INTERLUDE (1:23 - 1:31)
e------------------------------------------------------------|
b------------------------------------------------------------|
g------------------------------------------------------------|
d-22222222222222-66666666666666-44444444444444-22222222222222|
a-22222222222222-66666666666666-44444444444444-22222222222222|
e-00000000000000-44444444444444-22222222222222-00000000000000|

REFRAIN (1:31 - 1:48)
e-----------------------------------------------------------------|
b-----------------------------------------------------------------|
g-44444-33333-44444-33333-----44444-33333-------------------------|
d-44444-44444-22222-22222-(2x)44444-44444-66-44-222222-22222-44444|
a-22222-22222-22222-22222-----22222-22222-66-44-222222-22222-44444|
e-------------00000-00000-----------------44-22-000000-00000-22222|

THE SLOW PART 1 (1:48 - 1:59)
e-------------------------------------|
b-------------------------------------|
g-88888888-66666666-4444-3333-11111111|
d-88888888-66666666-4444-4444-22222222|
a-66666666-44444444-2222-2222-22222222|
e-------------------------------------|
pm........ ........ .... .... ........

THE SLOW PART 2 (1:59 - 2:09)
e------------------------------------|
b------------------------------------|
g-44444444---------------------------|
d-44444444-44444444-66666666-22222222|
a-22222222-44444444-66666666-22222222|
e----------22222222-44444444-00000000|
pm........ ........ ........ ........

THE SLOW PART 3 (2:09 - 2:31)
e----------------------------------------------------------------------------------------------------------------
b----------------------------------------------------------------------------------------------------------------
g-44444444----------------------------4-444444----------------------------(2x)-44444444--------------------------
d-44444444-44444444-222222222222222-4-4-444444-44444444-66666666-22222222------44444444-44444444-2222222222222222
a-22222222-44444444-222222222222222-4-2-222222-44444444-66666666-22222222------22222222-44444444-2222222222222222
e----------22222222-000000000000000-2----------22222222-44444444-00000000---------------22222222-0000000000000000
pm........ ........ ...............     ...... ........ ........ ........      ........ ........

OUTRO PART 1 (2:31 - 2:51)
e-----------------------------------------------|
b-----------------------------------------------|
g-44444-33333-44444-33333-----------------------|
d-44444-44444-22222-22222-66666-44444-2222222222|
a-22222-22222-22222-22222-66666-44444-2222222222|
e-------------00000-00000-44444-22222-0000000000|

OUTRO PART 2 (2:51 - 3:01)
e-00----------00-------------|
b-00----------00-------------|
g-11----------11-------------|
d-22-4-666666-22-4-6-44444444|
a-22-4-666666-22-4-6-44444444|
e-00-2-444444-00-2-4-22222222|

OUTRO PART 3 (3:01 - 3:22)
e------------------------------------|
b------------------------------------|
g---------------4-------------------4|
d-2-4-6--4--2-4-4-2--2-4-6-4-2--2-4-4|
a-2-4-6---4-2-4-2-2--2-4-6-4-2--2-4-2|
e-0-2-4-----0-2---0--0-2-4-2-0--0-2--|
            
Submit corrections

comments powered by Disqus
↑ Back to top | Lawrence Arms Tabs for 100 Resolutions. Lyrics for acoustic guitar and electric guitar. Tablatures and chords are parodies/interpretations of the original songs. You may use it for private study, scholarship, research or language learning purposes only